Você está na página 1de 8

Cem Mil

Gusttavo Lima

Versão: Principal auto rolagem

Tom: C

[Intro] Dm C G

e|----15/17-17-17p15-15-
B|-15-------------------
G|----------------------
D|----------------------
A|----------------------
E|----------------------

e|15h17p15----13-13-13/15-----
B|----------------------------
G|----------------------------
D|----------------------------
A|----------------------------
E|----------------------------

e|-----------12h13p12--------
B|-17-17-17------------15p13-
G|---------------------------
D|---------------------------
A|---------------------------
E|---------------------------

e|-------------------------|
B|12~~---------------------|
G|-------------------------|
D|-------------------------|
A|-------------------------|
E|-------------------------|

[Primeira Parte]
Dm F
Não fale mais o meu nome
C
Não me telefone
G
Por favor, não pergunte por
Dm
mim

F
Vê se me esquece e some
C
Se eu te ver de longe
G
Viro a cara e finjo que não
Dm
vi

[Segunda Parte]

F
Mas eu não vou mentir
C
Tá doendo lá no fundo
G
Sem você, eu não consigo mais
dormir

Dm
Vamos fazer assim
F
Melhor não me procurar
C
Porque eu morro de medo de te
G
perdoar

[Refrão]

Dm
Eu tô falando mal de
F
você, iê, iê
Que você nunca soube fazer,
Am
iê, iê
Cem mil com quem quiser eu
G
aposto
Se ela bater o dedo, eu volto
Dm

Eu tô falando mal de você, iê,


F

Que você nunca soube fazer,
Am
iê, iê
Cem mil com quem quiser eu
G
aposto
Se ela bater o dedo, eu volto
Dm

Dm G
Ela não vale um real, mas eu
Am
adoro

[Solo] Am Em G Dm
Am Em G D
Dm C G

e|--------------------
B|-13-15-12h13p12--13-
G|--------------------
D|--------------------
A|--------------------
E|--------------------

e|---------------------------
B|12h13p12-------------------
G|---------14-12-14-14/16-12-
D|---------------------------
A|---------------------------
E|---------------------------

e|----------------------------
B|-13-15-12h13p12-13-12h13p12-
G|----------------------------
D|----------------------------
A|----------------------------
E|----------------------------

e|------------------------|
B|------------12-13-15-15-|
G|14-12-14/16-------------|
D|------------------------|
A|------------------------|
E|------------------------|

e|----------------------------
B|----------------------------
G|-14-14-12-12-11-11-10-10----
D|----------------------------
A|----------------------------
E|----------------------------

e|---------------------------
B|---------------------------
G|-7/9-9-9/7-7-7/5-5-5/7-7-7-
D|---------------------------
A|---------------------------
E|---------------------------

e|--------10-10-10-10-10---|
B|-------------------------|
G|7-5/7--------------------|
D|-------------------------|
A|-------------------------|
E|-------------------------|

[Primeira Parte]

Dm F
Não fale mais o meu nome
C
Não me telefone
G
Por favor, não pergunte por
Dm
mim

F
Vê se me esquece e some
C
Se eu te ver de longe
G
Viro a cara e finjo que não
Dm
vi

[Segunda Parte]

F
Mas eu não vou mentir
C
Tá doendo lá no fundo
G
Sem você, eu não consigo mais
dormir

Dm
Vamos fazer assim
F
Melhor não me procurar
C G
Porque eu morro de medo de te
perdoar

[Refrão]

Dm
Eu tô falando mal de
F
você, iê, iê
Que você nunca soube fazer,
Am
iê, iê
Cem mil com quem quiser eu
G
aposto
Se ela bater o dedo, eu volto
Dm
Eu tô falando mal de você, iê,
F

Que você nunca soube fazer,
Am
iê, iê
Cem mil com quem quiser eu
G
aposto
Se ela bater o dedo, eu volto
Dm

Dm G
Ela não vale um real, mas eu
Am
adoro

[Final] Am Em G Dm
Am Em G D
Dm C G

Clipes

Recomendados

Shampoo para crescimento capilar chega ao Brasil


Evolutio27 | Patrocinado

Novo método para eliminar rugas vira febre em Seabra


Dermacaps | Patrocinado
Mulher descobre progressiva caseira sem formol e viraliza em Seabra
MegaLizz | Patrocinado

Cifra Club | ESCREVE AI - Luan Santana (cifra para violão e guitarra com videoaula)
Cifra Club

Professora derrete gordura da barriga e quase vai presa


Kifina | Patrocinado

Incrível! Dor nas juntas conta com aliado natural. Conheça!


FlexCaps | Patrocinado

Siga-nos

Youtube Facebook Instagram Twitter Google +

Navegação

Versão clássica

Mais música

Feito com em Belo Horizonte


© 1996 - 2019, 456 mil músicas, 28. milhões de pessoas cadastradas
O maior site de ensino de música do Brasil
Parceiro:
Terra Música