Você está na página 1de 2

OhneDich

Rammstein
Composio:OliverRiedel/PaulLanders/Rammstein/RichardZ.Kruspe

Tom: C

Introduo s baixo(se quiser acompanhar com a base no violo,tbm fica bacana)


(Dm,Am,G,F,Am)

Dm Am G F Am
---------------------|---------------------|---------------------|---------------|-----------
--------3-----3------|-----1----1----------|-------2----2--------|---------1-----|----1------
------2--2--2--2-----|------2----2---------|--------0----0-------|----------2----|-----2-----
----0------0---------|----2----2-----------|------0----0---------|--------3------|---2-------
---------------------|---0----0------------|---------------------|---------------|--0--------
---------------------|---------------------|----3-----3----------|-----1---------|-----------

Refro

-----------------------------------|
-----------------------------------|
-----------------------------------|
---7~~-----------------------------|
---5~~7~~5~~3~~7~~-----------------|
------5~~3~~1~~5~~-----------------|

Solo(repita isso 2x em palhetadas rapidas)

------------|-----------------------|
-3-5-6-10-5-|--3-5-6-10-11-10-------|
------------|-----------------------|
------------|-----------------------|
------------|-----------------------|
------------|-----------------------|

Dm Am G F Am
---------------------|---------------------|---------------------|---------------|-----------
--------3-----3------|-----1----1----------|-------2----2--------|---------1-----|----1------
------2--2--2--2-----|------2----2---------|--------0----0-------|----------2----|-----2-----
----0------0---------|----2----2-----------|------0----0---------|--------3------|---2-------
---------------------|---0----0------------|---------------------|---------------|--0--------
---------------------|---------------------|----3-----3----------|-----1---------|-----------
Dm Am 3:11
---------------------|---------------------|---------------------|
--------3-----3------|-----1----1----------|---------------------|
------2--2--2--2-----|------2----2---------|---------------------|
----0------0---------|----2----2-----------|------------555--999-|
---------------------|---0----0------------|---3333333--333--777-|
---------------------|---------------------|---1111111-----------|

Refro

-----------------------------------|
-----------------------------------|
-----------------------------------|
---7~~-----------------------------|
---5~~7~~5~~3~~7~~-----------------|
------5~~3~~1~~5~~-----------------|

Solo(repita isso 2x em palhetadas rapidas)

------------|-----------------------|
-3-5-6-10-5-|--3-5-6-10-11-10-------|
------------|-----------------------|
------------|-----------------------|
------------|-----------------------|
------------|-----------------------|

Am Dm F G
1 1
2 3 2 2 1
3 3 4 2 3

Interesses relacionados