Você está na página 1de 1

Capotraste na 3ª casa G/B Em7

Me leva contigo pra passear


[Primeira Parte - Primeira Estrofe] C9 G5
Eu juro afeto e paz não vão te faltar
G5 C9 D4/F#
Tu é trevo de quatro folhas Ai ai ai
G5
É manhã de domingo à toa [Refrão]
G/B
Conversa rara e boa Em7 C9 G5
Em7 Ah...Eu só quero o leve da vida pra te levar
Pedaço de sonho D4/F#
C9 E o tempo para
Que faz meu querer acordar Em7 C9 D4
G5 D4 Ah...É a sorte de levar a hora pra passear
Pra vida, ai ai ai G/B C9
Pra cá e pra lá, pra lá e pra cá
Dedilhado: Parte 1 G5 C9 G5 C9
Quando aqui tu tá
G5 C9
E|------------------------------------| (Repete a Primeira Parte – 1ª e 2ª Estrofes)
B|------------------------------------|
G|---0---0----0---0----0---0----0---0-| [Refrão]
D|---0---0----0---0----0---0----0---0-|
A|-------------------3---3----3---3---| Em7 C9 G5
E|-3---3----3---3---------------------| Ah...Eu só quero o leve da vida pra te levar
D4/F#
Parte 2 E o tempo para
Em7 C9 D4
G5 G/B Ah...É a sorte de levar a hora pra passear
E|------------------------------------| G/B C9
B|------------------------------------| Pra cá e pra lá, pra lá e pra cá
G|---0---0----0---0----0---0----0---0-|
D|---0---0----0---0----0---0----0---0-| Quando aqui tu tá
A|-------------------2---2----2---2---|
E|-3---3----3---3---------------------| [Ponte]

Parte 3 Em7 C9 G5 D4/F#


Tu Tu
Em7 C9 Em7 C9 D4
E|------------------------------------| Tu Tu
B|------------------------------------|
G|---0---0----0---0----0---0----0---0-| [Refrão Final]
D|---0---0----0---0----0---0----0---0-|
A|-------------------3---3----3---3---| Em7 C9 G5
E|-0---0----0---0---------------------| Ah...Eu só quero o leve da vida pra te levar
D4/F#
Parte 4 E o tempo para
Em7 C9 D4
G5 D4 Ah...É a sorte de levar a hora pra passear
E|------------------------------------| G/B C9
B|------------------------------------| Pra cá e pra lá, pra lá e pra cá
G|---0---0----0---0----0---0----0---0-| G5
D|---0---0----0---0----0---0----0---0-| Quando aqui tu tá
A|-------------------5---5----5---5---|
E|-3---3----3---3---------------------| C9 G5
É trevo de quatro folhas
[Primeira Parte – Segunda Estrofe] C9 G5
É trevo de quatro folhas é
G5 C9 C9 G5
Tu que tem esse abraço casa É trevo de quatro folhas
G5 C9 G5
Se decidir bater asa É trevo de quatro folhas é