Você está na página 1de 2

10/02/2017 CifraClubLiaSophiaAiMenina

AiMenina
LiaSophia
Composio:LiaSophia

Tom: G

Intro 2x: Em B7 Em C B7
E|--------7-----------------5-----------------|
B|-88-88----8-5-7-----77-77---7-4-5-----------|
G|--------------------------------------------|
D|--------------------------------------------|
A|--------------------------------------------|
E|--------------------------------------------|

E|-------7------------------------------------|
B|-88-88---8-5-----4-5------------------------|
G|-------------5-4----------------------------|
D|--------------------------------------------|
A|--------------------------------------------|
E|--------------------------------------------|

Em Bm
Menina o que fazer com seu rebolado? Ai
Em Bm
Menina o que fazer com essa saia rodada? Ai
Am D7
Se o tambor comea, tua saia gira
D# Em
O mundo inteiro pra pra te ver menina

Bm
Me diz o que fazer com teu rebolado? Ai
Em Bm
Menina o que fazer com essa saia rodada? Ai
Am D7
na palma, no couro, essa roda gira
D# Em
O que vou fazer pra te ter menina?

Bm
Ai Menina, vem!

Pra roda vem!


Em
Ai Menina!
Bm Am
Aqui tem carimb
D7
Todo mundo balana no teu bailado
D# Em
Curimb segue a ginga do teu rodar

https://www.cifraclub.com.br/liasophia/aimenina/imprimir.html#font=13&columns=false 1/2
10/02/2017 CifraClubLiaSophiaAiMenina

Solo:

E|----------------------------------------------|
B|----------------------------------------------|
G|-----------------4----------------5----4------|
D|-----4-5---4---5---7-4--------4-7----7----5---|
A|---7---------7----------6---6---------------7-|
E|-7--------------------------------------------|

E|---------------------------------------------|
B|-------5----4------------7-10--7-8-----------|
G|-----5----7----4-----------------------------|
D|-4-7-------------4-----9------------9--10-11-|
A|---------------------9-----------------------|
E|---------------------------------------------|

E|-7-7-7-7-7-7------8--------------------------7-----|
B|--------------10----7---10--10-10-10-10---8--------|
G|-----------------------------------------------9---|
D|---------------------------------------------------|
A|---------------------------------------------------|
E|---------------------------------------------------|

E|-----------------8-7-/12-11---------------------|
B|-8--8-8-8-8-----------------13--12-10-----------|
G|-------------11------------------------12-11-9--|
D|------------------------------------------------|
A|------------------------------------------------|
E|------------------------------------------------|

Am B7 Bm C D# D7
1 1 1 1 2 1
2 3 2 3 4 2 3 4 2 3
2 3
3 4

Em

1 2

https://www.cifraclub.com.br/liasophia/aimenina/imprimir.html#font=13&columns=false 2/2