Você está na página 1de 3

Linda Demais

Roupa Nova
Composio: Tavinho Paes

Tom: C

[Intro]

Am F C G
E|----------------------------------------------13-15-15/17-15~----20b-15-----------------
B|--15b--15b-13-15b-15b--15-13---------------13---------------------------17-------------1
G|----------------------------------------14---------------------------------17-------17--
D|------------------------------15~----15---------------------------------------17-17-----
A|----------------------------------------------------------------------------------------
E|----------------------------------------------------------------------------------------
C G/B Am F
Linda, s voc me fascina
C F G
Te desejo muito alm do prazer
C G/B Am F
Vista meu futuro em teu corpo
C F G
E me ama como eu amo voc

Am G F C
Vem fazer diferente o que mais ningum faz
G F
Faz parte de mim, me inventa outra vez
Am G F C
Vem conquistar meu mundo, dividir o que seu
G F G
Mil beijos de amor em muitos lenis, s eu e voc

C G/B Am F
Linda, conte a mim teu segredo
C F G
Pro meu sonho diga quem voc
C G/B Am F
Livre, nunca mais tenha medo
C F G
Pois quem ama tudo pode vencer

Am G F C
Vem fazer diferente o que mais ningum faz
G F
Faz parte de mim, me inventa outra vez
Am G F C
Vem conquistar meu mundo, dividir o que seu
G F G
Mil beijos de amor em muitos lenis, s eu e voc

Linda...

[Solo]

E|----------------------------------------------------------------------------------------
B|----------------------------------------------------------------------------------------
G|-------5/7-7-5-4-----------2/4-4-2-0---------2/4-2-------4/5-4-5/7-5-7/9-7-9/10-9-10/12-
D|-2-3-5-----------5-2---0-2-----------3-2/3-2-------3/5-3--------------------------------
A|---------------------3------------------------------------------------------------------
E|----------------------------------------------------------------------------------------
E|-------8/10-10-10-8-7----------------5/7-7-5-7-5----------------------------------------
B|-5-6-8----------------10-8-6-5-----5-------------8-6-5----------------------------------
G|-------------------------------5-6---------------------7--------------------------------
D|----------------------------------------------------------------------------------------
A|----------------------------------------------------------------------------------------
E|----------------------------------------------------------------------------------------
E|-------5/7-5-------7/8-7-8/10-8-10/12-10-12/13-12-13/15----17---------------------------
B|-5/6-5-------6/8-6--------------------------------------15------------------------------
G|----------------------------------------------------------------------------------------
D|----------------------------------------------------------------------------------------
A|----------------------------------------------------------------------------------------
E|----------------------------------------------------------------------------------------
Am Em F C
Vem fazer diferente o que mais ningum faz
G F
Faz parte de mim, me inventa outra vez
Am Em F C
Vem conquistar meu mundo, dividir o que seu
G F G
Mil beijos de amor em muitos lenis, s eu e voc

C G/B Am F
Linda, s voc me fascina
C F G
Te desejo muito alm do prazer
C G/B Am F
Vista meu futuro em teu corpo
C F G
E me ama como eu amo voc
F G C
Voc
Am C Em F G G/B
1 1
2 3 2 1 2 2 1 1
3 3 4 2 3 2 3