Você está na página 1de 3

02/02/2017 CifraClubBandadoMarMaisNingum

MaisNingum
BandadoMar
Composio:MalluMagalhes

Tom: C

Intro: A eu tenho voc s pra mim


Dm C
e|---x--------x--------x--------x---------| Roubo teu sono, quero teu tudo
B|---x--------x--------x--------x---------| E7
G|---x--------x--------x--------x---------| Se mais algum vier no vou notar
D|---x--------x--------x--------x---------|
A|---x--------x--------x--------x---------| Refro:
E|-5-x-0-3--5-x-0-3--5-x-0-3--5-x-0-3-----|
F C
Preciso de voc
Primeira Parte Primeira Estrofe: G Am
Pra me fazer feliz
Mesmo que no venha mais ningum F C
No quero mais ficar
Ficamos s eu e voc G G#
Aqui
Fazemos a festa, somos do mundo
F C
Sempre fomos bons de conversar Preciso me ver s
G Am
Primeira Parte Primeira Estrofe: Pra me fazer maior
F C
Parte 1 Pois quando voc vem
E7
e|---x--------x--------x--------x---------| Eu fico melhor
B|---x--------x--------x--------x---------|
G|---x--------x--------x--------x---------| Base Solo 2x:
D|---x--------x--------x--------x---------|
A|---x--------x--------x--------x---------| Am Dm C E7
E|-5-x-0-3--5-x-0-3--5-x-0-3--5-x-0-3-----|
Solo:

Parte 2 Parte 1

e|---x--------x--------x------------------| e|----------------------------------------|
B|---x--------x--------x------------------| B|----------------------------------------|
G|---x--------x--------x------------------| G|-----------------------5-4--------------|
D|---x--------x--------x------------------| D|-5/7-7-7-5-----------7-----7------------|
A|-5-x---5--3-x---3----x------------------| A|-----------7--7-5-7----------5-5/7------|
E|---x-5------x-3----0-x-0-0--------------| E|----------------------------------------|

Primeira Parte Segunda Estrofe: Parte 2

Am
Eu s espero que no venha mais ningum

https://www.cifraclub.com.br/bandadomar/maisningem/imprimir.html#font=13 1/3
02/02/2017 CifraClubBandadoMarMaisNingum

e|----------------------------------------|
B|----------------------------------------| A eu tenho voc s pra mim
G|---------7b9-9r7-7-5-----7b9-9r7-5------| Dm C
D|-------5-------------7p5-----------7-5--| Roubo teu sono, quero teu tudo
A|-7\5-7----------------------------------| E7
E|----------------------------------------| Se mais algum vier no vou notar

Parte 3 Refro:

e|-------------5-8/10-8\5-5--------------- F C
B|-x-x-5h6p5-8--------------8-5----------- Preciso de voc
G|------------------------------7-5---5-4- G Am
D|----------------------------------7----- Pra me fazer feliz
A|---------------------------------------- F C
E|---------------------------------------- No quero mais ficar
e|------------| G G#
B|------------| Aqui
G|------------|
D|5-----------| F C
A|--7-5-5/7-5-| Preciso me ver s
E|------------| G Am
Pra me fazer maior
Primeira Parte Primeira Estrofe: F C
Pois quando voc vem
Mesmo que no venha mais ningum E7
Eu fico melhor
Ficamos s eu e voc
Repete Intro 2x:
Fazemos a festa, somos do mundo
Final:
Sempre fomos bons de conversar
Am
Primeira Parte Segunda Estrofe: Mesmo que no venha mais ningum

Am Ficamos s eu e voc
Eu s espero que no venha mais ningum Dm C
Fazemos a festa, somos do mundo
E7
Sempre fomos bons de conversar

Am C Dm E7 F G
1 1 1 1
2 3 2 2 2 2 1
3 3 4 3 4 2 3 4

https://www.cifraclub.com.br/bandadomar/maisningem/imprimir.html#font=13 2/3
02/02/2017 CifraClubBandadoMarMaisNingum

G#

1 2
3 4

https://www.cifraclub.com.br/bandadomar/maisningem/imprimir.html#font=13 3/3

Interesses relacionados