Você está na página 1de 13

Q

E
Q.
Q
Q
E Q.
Q
Q
E
Q.
Q
D||------------------------|------------------------|------------------------|
A||--8-------10~-----------|--12-------8~-----------|--13------12~-----------|
F||--9-------11~-----------|--12-------9~-----------|--12------12~-----------|
C||--x--------x------------|---x-------x------------|---x-------x------------|
G||--7--------9------------|--10-------7------------|--10------10------------|
D||------------------------|------------------------|------------------------|
Q
E Q.
Q
Q
E
Q.
Q
Q
E Q.
Q
-----------------------|------------------------|------------------------|
--8-------7~-----------|--8-------10~-----------|--12-------8~-----------|
--7-------7~-----------|--9-------11~-----------|--12-------9~-----------|
--x-------x------------|--x--------x------------|---x-------x------------|
--5-------5------------|--7--------9------------|--10-------7------------|
-----------------------|------------------------|------------------------|
Q
E
Q.
Q
Q
E Q
Q
E E E E E E E
E
-------------------------|----------------------|---------------------------|
--13-------12~-----------|--8-------7~----------|--0--7--8--0--7--8--0--10--|
--12-------12~-----------|--7-------7~----------|---------------------------|
---x--------x------------|--x-------x-----------|---------------------------|
--10-------10------------|--5-------5-----6~----|---------------------------|
-------------------------|----------------------|---------------------------|
E E E
E E
E
E E
E
E E
E
E E
E E
------------------------------|--10--12--0--14--15--0--17--0--|
--12--0--8--10--0--11--12--0--|-------------------------------|
------------------------------|-------------------------------|
------------------------------|-------------------------------|
------------------------------|-------------------------------|
------------------------------|-------------------------------|
E E
E
H
E
E E E E E E E
E
--15--0--------------------|---------------------------|
---------17--16~--------L--|--0--7--8--0--7--8--0--10--|
---------------------------|---------------------------|
---------------------------|---------------------------|
---------------------------|---------------------------|
---------------------------|---------------------------|
E E E
E E
E
E E
E
E E
E
E E
E E
------------------------------|--10--12--0--14--15--0--17--0--|
--12--0--8--10--0--11--12--0--|-------------------------------|
------------------------------|-------------------------------|
------------------------------|-------------------------------|
------------------------------|-------------------------------|
------------------------------|-------------------------------|
E E
E
H
E
E E E E E E E
E
--15--0--------------------|---------------------------|
---------17--16~--------L--|--0--7--8--0--7--8--0--10--|
---------------------------|---------------------------|
---------------------------|---------------------------|
---------------------------|---------------------------|
---------------------------|---------------------------|

E E E
E E
E
E E
E
E E
E
E E
E E
------------------------------|--10--12--0--14--15--0--17--0--|
--12--0--8--10--0--11--12--0--|-------------------------------|
------------------------------|-------------------------------|
------------------------------|-------------------------------|
------------------------------|-------------------------------|
------------------------------|-------------------------------|
E
E
E
H
E
E E E E E E E
E
--15------------------------|---------------------------|
------16--17--19~--------L--|--0--7--8--0--7--8--0--10--|
----------------------------|---------------------------|
----------------------------|---------------------------|
----------------------------|---------------------------|
----------------------------|---------------------------|
E E E
E E
E
E E
E
E E
E
E E
E E
------------------------------|--10--12--0--14--15--0--17--0--|
--12--0--8--10--0--11--12--0--|-------------------------------|
------------------------------|-------------------------------|
------------------------------|-------------------------------|
------------------------------|-------------------------------|
------------------------------|-------------------------------|
E E
E
H
E
S S S S S S S S S S S S S S S S
--15--0--------------------|------------------------------------|
---------17--16~--------L--|--0-0-7-7-8-8-0-0-7-7-8-8-0-0-10-10-|
---------------------------|------------------------------------|
---------------------------|------------------------------------|
---------------------------|------------------------------------|
---------------------------|------------------------------------|
S S S S S S S S S S S S S S S S
------------------------------------------|
--12-12-0-0-8-8-10-10-0-0-11-11-12-12-0-0-|
------------------------------------------|
------------------------------------------|
------------------------------------------|
------------------------------------------|
S S S S S S S S S S S S S S S S
E
E
E
H
E
--10-10-12-12-0-0-14-14-15-15-0-0-17-17-0-0-|--15------------------------|
--------------------------------------------|------16--17--19~--------L--|
--------------------------------------------|----------------------------|
--------------------------------------------|----------------------------|
--------------------------------------------|----------------------------|
--------------------------------------------|----------------------------|
S S S S S S S S S S S S S S S S
S S S S S S S S S S S S S S S S
----------------------------------|----------------------------------|
----------------------------------|----------------------------------|
----------------------------------|----------------------------------|
----------------------------------|----------------------------------|
--7-7-7-7-7-7-6-6-6-6-6-6-6-6-6-6-|--5-5-5-5-5-5-4-4-4-4-4-4-4-4-4-4-|
----------------------------------|----------------------------------|
S S S S S S Q
E E E E E E Q
Q.
--------------------|----------------------------------|
--------------------|----------------------------------|
--------------------|----------------------------------|

--------------------|--------------------------5~------|
--3-3-3-3-3-3-2~----|-----------3----------------------|
--------------------|--0--2--3-----3--5--7~------------|
S S S S S S S S S S S S S S S S
S S S S S S S S S S S S S S S S
----------------------------------|----------------------------------|
----------------------------------|----------------------------------|
----------------------------------|----------------------------------|
----------------------------------|----------------------------------|
--7-7-7-7-7-7-6-6-6-6-6-6-6-6-6-6-|--5-5-5-5-5-5-4-4-4-4-4-4-4-4-4-4-|
----------------------------------|----------------------------------|
S S S S S S Q
E E E E E E Q.
Q
--------------------|---------------------------------|
--------------------|---------------------------------|
--------------------|---------------------------------|
--------------------|--------4--------4---------------|
--3-3-3-3-3-3-2~----|--------------------6~------L----|
--------------------|--0--5-----3--5------------------|
S S S S S S S S S S S S S S S S
S S S S S S S S S S S S S S S S
----------------------------------|----------------------------------|
----------------------------------|----------------------------------|
----------------------------------|----------------------------------|
----------------------------------|----------------------------------|
--7-7-7-7-7-7-6-6-6-6-6-6-6-6-6-6-|--5-5-5-5-5-5-4-4-4-4-4-4-4-4-4-4-|
----------------------------------|----------------------------------|
S S S S S S Q
E E E E E E H
E
--------------------|---------------------------------|
--------------------|-----5-----3-----5--7~--------L--|
--------------------|-----5-----4-----5--7~--------L--|
--------------------|-----5--x--4--x--5--7~--------L--|
--3-3-3-3-3-3-2~----|--------x-----x------------------|
--------------------|--------x-----x------------------|
S S S S S S S S S S S S S S S S
--------------------------------------------|
--8-8-8-8-8-8-10-10-10-10-10-10-10-10-10-10-|
--------------------------------------------|
--------------------------------------------|
--------------------------------------------|
--------------------------------------------|
S S S S S S S S S S S S S S S S
S S S S S S S S S S S S
--------------------------------------------|--------------------------------|
--------------------------------------------|--------------------------------|
--9-9-9-9-9-9-12-12-12-12-12-12-12-12-12-12-|--------------------------------|
--------------------------------------------|--9-9-9-9-9-9-12-12-12-12-12-12-|
--------------------------------------------|--------------------------------|
--------------------------------------------|--------------------------------|
E
E E E
E
Q
Q.
--------------------------------|
--------------------------------|
-----11--------11---------------|
--9------7--9------13----L------|
--------------------------------|
--------------------------------|

S S S S S S S S S S S S S S S S
--------------------------------------------------|
--------------------------------------------------|
--13-13-13-13-13-13-13-13-13-13-13-13-13-13-13-13-|
---x--x--x--x--x--x--x--x--x--x--x--x--x--x--x--x-|
--11-11-11-11-11-11-11-11-11-11-11-11-11-11-11-11-|
--------------------------------------------------|
S S S S S S S S S S S S S S S S
--------------------------------------------------|
--------------------------------------------------|
--13-13-13-13-13-13-13-13-13-13-13-13-13-13-13-13-|
---x--x--x--x--x--x--x--x--x--x--x--x--x--x--x--x-|
--11-11-11-11-11-11-11-11-11-11-11-11-11-11-11-11-|
--------------------------------------------------|
S S S S S S S S S S S S S S S S
W
--------------------------------------------------|-------------------|
--------------------------------------------------|-------------------|
--14-14-14-14-14-14-14-14-14-14-14-14-14-14-14-14-|-------------------|
---x--x--x--x--x--x--x--x--x--x--x--x--x--x--x--x-|-------------------|
--12-12-12-12-12-12-12-12-12-12-12-12-12-12-12-12-|-------------------|
--------------------------------------------------|--0----------------|
Slide your fretting hand along the string to make the harmonic sound
S
--------------------------------------------------------------------------------------------------------------------------------------------------------------------------------------------------------------------------------------------------------------------------------------------------------------------------------------------------------------------------------------------------------x-x-x-x-x-x-x-x-x-x-x
S S S S S S S S S S S S S S S S
S S S S S S S S S S S S S S S S
----------------------------------|----------------------------------|
----------------------------------|----------------------------------|
----------------------------------|----------------------------------|
----------------------------------|----------------------------------|
----------------------------------|----------------------------------|
--x-x-x-x-x-x-x-x-x-x-x-x-x-x-x-x-|--x-x-x-x-x-x-x-x-x-x-x-x-x-x-x-x-|
W
S S S S S S S S S S S S S S S S
-------------------|--------------------------------------------------|
-------------------|--------------------------------------------------|
-------------------|--13-13-13-13-13-13-13-13-13-13-13-13-13-13-13-13-|
-------------------|---x--x--x--x--x--x--x--x--x--x--x--x--x--x--x--x-|
-------------------|--11-11-11-11-11-11-11-11-11-11-11-11-11-11-11-11-|
--0----------------|--------------------------------------------------|
S S S S S S S S S S S S S S S S
--------------------------------------------------|
--------------------------------------------------|
--13-13-13-13-13-13-13-13-13-13-13-13-13-13-13-13-|
---x--x--x--x--x--x--x--x--x--x--x--x--x--x--x--x-|
--11-11-11-11-11-11-11-11-11-11-11-11-11-11-11-11-|
--------------------------------------------------|

S S S S S S S S S S S S S S S S
W
--------------------------------------------------|-------------------|
--------------------------------------------------|-------------------|
--14-14-14-14-14-14-14-14-14-14-14-14-14-14-14-14-|-------------------|
---x--x--x--x--x--x--x--x--x--x--x--x--x--x--x--x-|-------------------|
--12-12-12-12-12-12-12-12-12-12-12-12-12-12-12-12-|-------------------|
--------------------------------------------------|--0----------------|
S S S S S S S S S S S S S S S S
S S S S S S S S S S S S S S S S
----------------------------------|----------------------------------|
----------------------------------|----------------------------------|
----------------------------------|----------------------------------|
----------------------------------|----------------------------------|
----------------------------------|----------------------------------|
--x-x-x-x-x-x-x-x-x-x-x-x-x-x-x-x-|--x-x-x-x-x-x-x-x-x-x-x-x-x-x-x-x-|
S S S S S S S S S S S S S S S S
W
----------------------------------|-------------------|
----------------------------------|-------------------|
----------------------------------|-------------------|
----------------------------------|-------------------|
----------------------------------|-------------------|
--x-x-x-x-x-x-x-x-x-x-x-x-x-x-x-x-|--0----------------|
E E E
E
E
E
E
E
E
E
E E E E E E
-------------------------------|-----------------------------|
--8--8--8--10--10--10--10--10--|--12--12--12--8--8--8--8--8--|
--9--9--9--11--11--11--11--11--|--12--12--12--9--9--9--9--9--|
--x--x--x---x---x---x---x---x--|---x---x---x--x--x--x--x--x--|
--7--7--7---9---9---9---9---9--|--10--10--10--7--7--7--7--7--|
-------------------------------|-----------------------------|
E
E
E
E
E
E
E
E
E E E E E E E E
----------------------------------|--------------------------|
--13--13--13--12--12--12--12--12--|--8--8--8--7--7--7--7--7--|
--12--12--12--12--12--12--12--12--|--7--7--7--7--7--7--7--7--|
---x---x---x---x---x---x---x---x--|--x--x--x--x--x--x--x--x--|
--10--10--10--10--10--10--10--10--|--5--5--5--5--5--5--5--5--|
----------------------------------|--------------------------|
E E E
E
E
E
E
E
E
E
E
E
E
E
E
E
-------------------------------|----------------------------------|
--8--8--8--10--10--10--10--10--|--12--12--12--10--10--10--10--10--|
--9--9--9--11--11--11--11--11--|--12--12--12--11--11--11--11--11--|
--x--x--x---x---x---x---x---x--|---x---x---x---x---x---x---x---x--|
--7--7--7---9---9---9---9---9--|--10--10--10---9---9---9---9---9--|
-------------------------------|----------------------------------|
E
E
E
E
E
E
E
E
E E E E E E E E
--12--12--12--10--10--10--10--10--|--------------------------|
---x---x---x---x---x---x---x---x--|--8--8--8--7--7--7--7--7--|
--12--12--12--11--11--11--11--11--|--7--7--7--7--7--7--7--7--|
---x---x---x---x---x---x---x---x--|--x--x--x--x--x--x--x--x--|
--10--10--10---9---9---9---9---9--|--5--5--5--5--5--5--5--5--|
----------------------------------|--------------------------|
E E E
E
E
E
E
E
E
E
E
E
E
E
E
E
-------------------------------|----------------------------------|
--8--8--8--10--10--10--10--10--|--12--12--12--10--10--10--10--10--|
--9--9--9--11--11--11--11--11--|--12--12--12--11--11--11--11--11--|

--x--x--x---x---x---x---x---x--|---x---x---x---x---x---x---x---x--|
--7--7--7---9---9---9---9---9--|--10--10--10---9---9---9---9---9--|
-------------------------------|----------------------------------|
E
E
E
E
E
E
E
E
E E E E E E E E
--12--12--12--10--10--10--10--10--|--------------------------|
---x---x---x---x---x---x---x---x--|--8--8--8--7--7--7--7--7--|
--12--12--12--11--11--11--11--11--|--7--7--7--7--7--7--7--7--|
---x---x---x---x---x---x---x---x--|--x--x--x--x--x--x--x--x--|
--10--10--10---9---9---9---9---9--|--5--5--5--5--5--5--5--5--|
----------------------------------|--------------------------|
E E E
E
E
E
E
E
E
E
E E E E E E
-------------------------------|-----------------------------|
--8--8--8--10--10--10--10--10--|--12--12--12--8--8--8--8--8--|
--9--9--9--11--11--11--11--11--|--12--12--12--9--9--9--9--9--|
--x--x--x---x---x---x---x---x--|---x---x---x--x--x--x--x--x--|
--7--7--7---9---9---9---9---9--|--10--10--10--7--7--7--7--7--|
-------------------------------|-----------------------------|
E
E
E
E
E
E
E
E
S S S S S S S S
Q
Q
Q
Q
----------------------------------|--------------------|----------------------|
--13--13--13--12--12--12--12--12--|--7h-8p-7--7-------|-----------------------|
--12--12--12--12--12--12--12--12--|----------9---9-7-6-|-------7----9---11----|
---x---x---x---x---x---x---x---x--|--------------------|-9--------------------|
--10--10--10--10--10--10--10-10--|--------------------|-----------------------|
----------------------------------|--------------------|----------------------|
S S S S S S S S S S S S S S S S
S S S S S S S S S S S S S S S S
----------------------------------|----------------------------------|
----------------------------------|----------------------------------|
----------------------------------|----------------------------------|
----------------------------------|----------------------------------|
----------------------------------|----------------------------------|
--x-x-x-x-x-x-x-x-x-x-x-x-x-x-x-x-|--x-x-x-x-x-x-x-x-x-x-x-x-x-x-x-x-|
S S S S S S S S S S S S S S S S
S S S S S S S S S S S S S S S S
----------------------------------|----------------------------------|
----------------------------------|----------------------------------|
----------------------------------|----------------------------------|
----------------------------------|----------------------------------|
----------------------------------|----------------------------------|
--x-x-x-x-x-x-x-x-x-x-x-x-x-x-x-x-|--x-x-x-x-x-x-x-x-x-x-x-x-x-x-x-x-|
S S S S S S S S S S S S S S S S
S S S S S S S S S S S S S S S S
----------------------------------|----------------------------------|
----------------------------------|----------------------------------|
----------------------------------|----------------------------------|
----------------------------------|----------------------------------|
----------------------------------|----------------------------------|
--x-x-x-x-x-x-x-x-x-x-x-x-x-x-x-x-|--x-x-x-x-x-x-x-x-x-x-x-x-x-x-x-x-|
S S S S S S S S S S S S S S S S
E.
E. E. E. E E
----------------------------------|-------------------------|
----------------------------------|-------------------------|

----------------------------------|-------------------------|
----------------------------------|--9---10---7---5---4--5--|
----------------------------------|--7----8---5---3---2--3--|
--x-x-x-x-x-x-x-x-x-x-x-x-x-x-x-x-|-------------------------|
S S S S S S S S S S S S S S S S
S S S S S S S S S S S S S S S S
--4-0-0-5-0-0-7-0-0-8-0-0-7-0-5-0-|--7-0-5-0-4-0-5-0-2-0-4-0-5-0-7-0-|
----------------------------------|----------------------------------|
----------------------------------|----------------------------------|
----------------------------------|----------------------------------|
----------------------------------|----------------------------------|
----------------------------------|----------------------------------|
S S S S S S S S S S S S S S S S
S S S S S S S S S S S S S S S S
--4-0-0-5-0-0-7-0-0-8-0-0-7-0-5-0-|--7-0-5-0-4-0-5-0-4-0-2-0-4-0-2-0-|
----------------------------------|----------------------------------|
----------------------------------|----------------------------------|
----------------------------------|----------------------------------|
----------------------------------|----------------------------------|
----------------------------------|----------------------------------|
S S
S S S
S S S
S S S S S S S S
-------------------0-10h-12-12-12-0-14-0-12-0-|
----------0-10h-12----------------------------|
--0-9h-11-------------------------------------|
----------------------------------------------|
----------------------------------------------|
----------------------------------------------|
S S
S S S
S S S
S S S S S S S S
-------------------0-10h-12-12-12-0-14-0-12-0-|
----------0-10h-12----------------------------|
--0-9h-11-------------------------------------|
----------------------------------------------|
----------------------------------------------|
----------------------------------------------|
S S S S S S S S S S S S S S S S
--14-0-12-0-10-0-12-0-9-0-10-0-7-0-9-0-|
---------------------------------------|
---------------------------------------|
---------------------------------------|
---------------------------------------|
---------------------------------------|
E.
E.
E.
E.
E.
E.
E.
E.
------------------------------------------|
--12---14---15---14---15---17---15---17---|
------------------------------------------|
------------------------------------------|
------------------------------------------|
------------------------------------------|
E.
E.
E.
E.
H.
W
Q
----------------------16~------------|--L----------------L----|
--19---20---17---19------------------|------------------------|
-------------------------------------|------------------------|
-------------------------------------|------------------------|
-------------------------------------|------------------------|
-------------------------------------|------------------------|

E E E
E
E
E
E
E
E
E
E E E E E E
-------------------------------|-----------------------------|
--8--8--8--10--10--10--10--10--|--12--12--12--8--8--8--8--8--|
--9--9--9--11--11--11--11--11--|--12--12--12--9--9--9--9--9--|
--x--x--x---x---x---x---x---x--|---x---x---x--x--x--x--x--x--|
--7--7--7---9---9---9---9---9--|--10--10--10--7--7--7--7--7--|
-------------------------------|-----------------------------|
E
E
E
E
E
E
E
E
E E E E E E E E
----------------------------------|--------------------------|
--13--13--13--12--12--12--12--12--|--8--8--8--7--7--7--7--7--|
--12--12--12--12--12--12--12--12--|--7--7--7--7--7--7--7--7--|
---x---x---x---x---x---x---x---x--|--x--x--x--x--x--x--x--x--|
--10--10--10--10--10--10--10--10--|--5--5--5--5--5--5--5--5--|
----------------------------------|--------------------------|
E E E
E
E
E
E
E
E
E
E
E
E
E
E
E
-------------------------------|----------------------------------|
--8--8--8--10--10--10--10--10--|--12--12--12--10--10--10--10--10--|
--9--9--9--11--11--11--11--11--|--12--12--12--11--11--11--11--11--|
--x--x--x---x---x---x---x---x--|---x---x---x---x---x---x---x---x--|
--7--7--7---9---9---9---9---9--|--10--10--10---9---9---9---9---9--|
-------------------------------|----------------------------------|
E
E
E
E
E
E
E
E
E E E E E E E E
--12--12--12--10--10--10--10--10--|--------------------------|
---x---x---x---x---x---x---x---x--|--8--8--8--7--7--7--7--7--|
--12--12--12--11--11--11--11--11--|--7--7--7--7--7--7--7--7--|
---x---x---x---x---x---x---x---x--|--x--x--x--x--x--x--x--x--|
--10--10--10---9---9---9---9---9--|--5--5--5--5--5--5--5--5--|
----------------------------------|--------------------------|
E E E
E
E
E
E
E
E
E
E
E
E
E
E
E
-------------------------------|----------------------------------|
--8--8--8--10--10--10--10--10--|--12--12--12--10--10--10--10--10--|
--9--9--9--11--11--11--11--11--|--12--12--12--11--11--11--11--11--|
--x--x--x---x---x---x---x---x--|---x---x---x---x---x---x---x---x--|
--7--7--7---9---9---9---9---9--|--10--10--10---9---9---9---9---9--|
-------------------------------|----------------------------------|
E
E
E
E
E
E
E
E
E E E E E E E E
--12--12--12--10--10--10--10--10--|--------------------------|
---x---x---x---x---x---x---x---x--|--8--8--8--7--7--7--7--7--|
--12--12--12--11--11--11--11--11--|--7--7--7--7--7--7--7--7--|
---x---x---x---x---x---x---x---x--|--x--x--x--x--x--x--x--x--|
--10--10--10---9---9---9---9---9--|--5--5--5--5--5--5--5--5--|
----------------------------------|--------------------------|
E E E
E
E
E
E
E
E
E
E E E E E E
-------------------------------|-----------------------------|
--8--8--8--10--10--10--10--10--|--12--12--12--8--8--8--8--8--|
--9--9--9--11--11--11--11--11--|--12--12--12--9--9--9--9--9--|
--x--x--x---x---x---x---x---x--|---x---x---x--x--x--x--x--x--|
--7--7--7---9---9---9---9---9--|--10--10--10--7--7--7--7--7--|
-------------------------------|-----------------------------|
E
E
E
E
E
E
E
E
S S S S S S S S
Q
Q
Q
Q
----------------------------------|--------------------|----------------------|

--13--13--13--12--12--12--12--12--|--7h-8p-7--7-------|-----------------------|
--12--12--12--12--12--12--12--12--|----------9---9-7-6-|-------7----9---11----|
---x---x---x---x---x---x---x---x--|--------------------|-9--------------------|
--10--10--10--10--10--10--10-10--|--------------------|-----------------------|
----------------------------------|--------------------|----------------------|
H.
E E
Q.
S S E E E E
W
----------------------|----------------------------|---------------------|
--7~------------7--8--|--8b------8p-7h-8--7--------|---------------------|
----------------------|----------------------7--9--|--9br----------------|
----------------------|----------------------------|---------------------|
----------------------|----------------------------|---------------------|
----------------------|----------------------------|---------------------|
H.
S S S S
S Q.
S S Q.
S
Q.
S S H
----------------------------|-------------------------|-----------------------|
----------------------------|-------------------------|--8b------87-----------|
--9~------------7h-9p-7h-9p-|--7-9b------9-7-9------L-|-------------9~--------|
----------------------------|-------------------------|-----------------------|
----------------------------|-------------------------|-----------------------|
----------------------------|-------------------------|-----------------------|
E
E
E
Q
S S E
E
Q.
H
-----------12-----------------------|-------------------|
-------12------15b----15-12---------|-------------------|
--14b-----------------------14--17--|--L------16--------|
------------------------------------|-------------------|
------------------------------------|-------------------|
------------------------------------|-------------------|
H
Q
Q
H
Q
Q
E.
E. S E. E. E.
-------------------------|-------------------------|-------------------------|
--15b~--------12----L----|--15b~-------------------|-------------------------|
-------------------------|--------------12----L----|-----------------7---9---|
-------------------------|-------------------------|-----------7-9-----------|
-------------------------|-------------------------|--7---10-----------------|
-------------------------|-------------------------|-------------------------|
S S S S S S S S S S S S S S S S
E.
E.
E
H
----------------------------------------------|--12----12----12--12----------|
----------------------------------------------|--15b---15b---15b-15br--------|
--9-9-9-9-11-11-11-11-12-12-12-12-14-14-1414-|-------------------------------|
----------------------------------------------|------------------------------|
----------------------------------------------|------------------------------|
----------------------------------------------|------------------------------|

|--3--| |--3--| |--3--| |--3--| |--3--| |--3--| |--3--| |--3--|


S S S S S S S S S S S S S S S S S S S S S S S S
--------------------------------------------------------------------------|
--12-15-12-15-12-15-12-15-12-15-12-15-12-15-12-15-12-15-12-15-12-15-12-15-|
--------------------------------------------------------------------------|
--------------------------------------------------------------------------|
--------------------------------------------------------------------------|
--------------------------------------------------------------------------|
E
E
E
E
Q.
E
Q.
S S H
----------15--17--17br~------15--|----------------------------|
--15--17-------------------------|--17b------17-15-17~--------|
---------------------------------|----------------------------|
---------------------------------|----------------------------|
---------------------------------|----------------------------|
---------------------------------|----------------------------|
E E E E E E E E
E E Q
E E Q
E E E E E E E E
--------5--------5--------|--------0----------0----|--------5-------5--------|
-----5--------5-----5-----|-----2----------2-------|-----5--------5----5-----|
--6--------6-----------6--|--2----------1----------|--6--------6----------6--|
--------------------------|------------------------|-------------------------|
--------------------------|------------------------|-------------------------|
--------------------------|------------------------|-------------------------|
E E Q
E E Q
E E E E E E E E
E E E E Q
Q
--------0----------0----|--------0--------0--------|--------0---------------|
-----2----------2-------|-----2--------2-----2-----|-----0-----0------------|
--2----------1----------|--1--------1-----------1--|--1---------------------|
------------------------|--------------------------|------------------------|
------------------------|--------------------------|--------------2----L----|
------------------------|--------------------------|--------------0----L----|
E E E E E E E E
E E E E Q
Q
E E E E E E E E
--------0--------0--------|--------0---------------|--------5-------5--------|
-----2--------2-----2-----|-----0-----0------------|-----5--------5----5-----|
--1--------1-----------1--|--1---------------------|--6--------6----------6--|
--------------------------|------------------------|-------------------------|
--------------------------|--------------2---L----|--------------------------|
--------------------------|--------------0---L----|--------------------------|
E E Q
E E Q
E E E E E E E E
E E Q
E E Q
--------0----------0----|--------5--------5--------|--------0----------0----|
-----2----------2-------|-----5--------5-----5-----|-----2----------2-------|
--2----------1----------|--6--------6-----------6--|--2----------1----------|
------------------------|--------------------------|------------------------|
------------------------|--------------------------|------------------------|
------------------------|--------------------------|------------------------|

E E E E E E E E
E E E E Q
Q
E E E E E E E E
--------0--------0--------|--------0---------------|--------0-------0--------|
-----2--------2-----2-----|-----0-----0------------|-----2--------2----2-----|
--1--------1-----------1--|--1---------------------|--1--------1----------1--|
--------------------------|------------------------|-------------------------|
--------------------------|--------------2---L----|--------------------------|
--------------------------|--------------0---L----|--------------------------|
E E E E Q
Q
W
--------0---------------|-------------------|-------------------|
-----2-----0------------|-------------------|-------------------|
--2---------------------|-------------------|-------------------|
------------------------|-------------------|-------------------|
--------------2----L----|--L----------------|-------------------|
--------------0----L----|--L----------------|-------------------|
Long break of guitar playing Em chord, then drums
W
-------------------|----------------------------------------------------|
-------------------|----------------------------------------------------|
-------------------|----------------------------------------------------|
-------------------|----------------------------------------------------|
-------------------|----------------------------------------------------|
-------------------|----------------------------------------------------|
kick in
H
H
-------------------|---------------------------|-----------|
-------------------|---------------------------|-----------|
-------------------|---------------------------|-----------|
-------------------|---------------------------|-----------|
-------------------|---------------------------|-----------|
-------------------|---------------------------|-----------|
E E E E E E E E
E E E E E E E E
--------------------------|--------------------------|
--------------------------|--------------------------|
--------------------------|--------------------------|
--------------------------|--------------------------|
--2--2--2--2--2--2--2--2--|--2--2--2--2--2--2--2--2--|
--0--0--0--0--0--0--0--0--|--0--0--0--0--0--0--0--0--|
E E E E E E E E
E E E E E E E E
--------------------------|--------------------------|
--------------------------|--------------------------|
--------------------------|--------------------------|
--------------------------|--------------------------|
--2--2--2--2--2--2--2--2--|--2--2--2--2--2--2--2--2--|
--0--0--0--0--0--0--0--0--|--0--0--0--0--0--0--0--0--|
E
E
E
E
E
E
E
E
E
E
E
E
E
E
E
E
----------------------------------|----------------------------------|
----------------------------------|----------------------------------|
--13--13--13--13--13--13--13--13--|--13--13--13--13--13--13--13--13--|
---x---x---x---x---x---x---x---x--|---x---x---x---x---x---x---x---x--|
--11--11--11--11--11--11--11--11--|--11--11--11--11--11--11--11--11--|

----------------------------------|----------------------------------|
E
E
E
E
E
E
E
E
E
E
E
E
E
E
E
E
----------------------------------|----------------------------------|
----------------------------------|----------------------------------|
--14--14--14--14--14--14--14--14--|--14--14--14--14--14--14--14--14--|
---x---x---x---x---x---x---x---x--|---x---x---x---x---x---x---x---x--|
--12--12--12--12--12--12--12--12--|--12--12--12--12--12--12--12--12--|
----------------------------------|----------------------------------|
E E E E E E E E
E
E
E
E
E
E
E
E
--------------------------|----------------------------------|
--8--8--8--8--8--8--8--8--|--10--10--10--10--10--10--10--10--|
--9--9--9--9--9--9--9--9--|--11--11--11--11--11--11--11--11--|
--x--x--x--x--x--x--x--x--|---x---x---x---x---x---x---x---x--|
--7--7--7--7--7--7--7--7--|---9---9---9---9---9---9---9---9--|
--------------------------|----------------------------------|
E
E
E
E
E
E
E
E
E E E E E E E E
----------------------------------|--------------------------|
--12--12--12--12--12--12--12--12--|--8--8--8--8--8--8--8--8--|
--12--12--12--12--12--12--12--12--|--9--9--9--9--9--9--9--9--|
---x---x---x---x---x---x---x---x--|--x--x--x--x--x--x--x--x--|
--10--10--10--10--10--10--10--10--|--7--7--7--7--7--7--7--7--|
----------------------------------|--------------------------|
E
E
E
E
E
E
E
E
E
E
E
E
E
E
E
E
----------------------------------|----------------------------------|
--13--13--13--13--13--13--13--13--|--12--12--12--12--12--12--12--12--|
--12--12--12--12--12--12--12--12--|--12--12--12--12--12--12--12--12--|
---x---x---x---x---x---x---x---x--|---x---x---x---x---x---x---x---x--|
--10--10--10--10--10--10--10--10--|--10--10--10--10--10--10--10--10--|
----------------------------------|----------------------------------|
E E E E E E E E
E E E E E E E E
--------------------------|--------------------------|
--8--8--8--8--8--8--8--8--|--7--7--7--7--7--7--7--7--|
--7--7--7--7--7--7--7--7--|--7--7--7--7--7--7--7--7--|
--x--x--x--x--x--x--x--x--|--x--x--x--x--x--x--x--x--|
--5--5--5--5--5--5--5--5--|--5--5--5--5--5--5--5--5--|
--------------------------|--------------------------|
E S S E S S E S S E S S
E S S E S S E S S E S S
------------------------------|----------------------------------|
--8------8------8------8------|--10------10------10------10------|
--9------9------9------9------|--11------11------11------11------|
--x--x-x-x--x-x-x--x-x-x--x-x-|---x--x-x--x--x-x--x--x-x--x--x-x-|
--7--x-x-7--x-x-7--x-x-7--x-x-|---9--x-x--9--x-x--9--x-x--9--x-x-|
-----x-x----x-x----x-x----x-x-|------x-x-----x-x-----x-x-----x-x-|
E S S E S S E S S E S S
E S S E S S E S S E S S
----------------------------------|----------------------------------|
--12------12------12------12------|--10------10------10------10------|
--12------12------12------12------|--11------11------11------11------|
---x--x-x--x--x-x--x--x-x--x--x-x-|---x--x-x--x--x-x--x--x-x--x--x-x-|
--10--x-x-10--x-x-10--x-x-10--x-x-|---9--x-x--9--x-x--9--x-x--9--x-x-|
------x-x-----x-x-----x-x-----x-x-|------x-x-----x-x-----x-x-----x-x-|
E S S E S S E S S E S S
E S S E S S E S S E S S
--12------12------12------12------|--10------10------10------10------|

---x-------x-------x-------x------|---x-------x-------x-------x------|
--12------12------12------12------|--11------11------11------11------|
---x--x-x--x--x-x--x--x-x--x--x-x-|---x--x-x--x--x-x--x--x-x--x--x-x-|
--10--x-x-10--x-x-10--x-x-10--x-x-|---9--x-x--9--x-x--9--x-x--9--x-x-|
------x-x-----x-x-----x-x-----x-x-|------x-x-----x-x-----x-x-----x-x-|
E E E E E E E E
Q
Q
Q
Q
W
--------------------------|----------------------|-------------------||
--8--8--8--8--8--8--8--8--|--7----7----7----7----|-------------------||
--7--7--7--7--7--7--7--7--|--7----7----7----7----|-------------------||
--x--x--x--x--x--x--x--x--|--x----x----x----x----|-------------------||
--5--5--5--5--5--5--5--5--|--5----5----5----5----|--2----------------||
--------------------------|----------------------|--0----------------||