Você está na página 1de 16

LETRAS.MUS.

BR

PALCO MP3

FRUM

NOTCIAS

AUDIOWARE

GUITAR BATTLE

Entrar

FORME SUA BANDA

publicidade

incio

cifras e tabs

top msicas

aprenda

enviar cifra

notcias

letras

frum

minhas cifras

ARTISTAS A B C D E F G H I J K L M N O P Q R S T U V W X Y Z 0/9
Pgina Inicial

Legio Urbana

Vento No Litoral

Cifra

Cifra Simplificada

Guitar Pro

Vento No Litoral

1.255.718

Legio Urbana

C urtir

Tom: F

Texto

Colunas

tom

Tw eetar

61

exibies
Email

voc tocando

Buscar

Voc precisa ter o flash mais recente instalado em seu computador


dow nload

e|---------------------------------------------------|
B|---5---3---1-----12----10---8----------------------|

afinao
acordes na letra
esconder tabs
m ais
afinador

Em (2x)
C (2x)

vdeo-aula

582

Mais...

(parte 1)

Alterar tom
tom

clipes

(intro) Am
F

Baixo

G|---------------------------------------------------|
D|-5---4---2----12----10----9------------------------|

(2x)

A|---------------------------------------------------|
E|---------------------------------------------------|
(parte 2)

rolagem

open in browser PRO version

Are you a developer? Try out the HTML to PDF API

pdfcrowd.com

rolagem
dicionrio
favoritar cifra
add a minhas cifras
letra
fotos
vdeos

e|---------------------------------------------------|
B|---6---5---3----5---3---1--------------------------|
G|---------------------------------------------------|

(2x)

D|-7---5---3----5---3---2----------------------------|
A|---------------------------------------------------|
E|---------------------------------------------------|
(parte 3 - repete parte 1)

imprimir
corrigir

e|---------------------------------------------------|

salvar txt

B|---5---3---1-----12----10---8----------------------|
G|---------------------------------------------------|
D|-5---4---2----12----10----9------------------------|

(2x)

A|---------------------------------------------------|
E|---------------------------------------------------|
(parte 4)
e|---------------------------------------------------|
B|---5---3---1----6---5---3----5---3---1-------------|
G|---------------------------------------------------|
D|-5---3---2----8---7---5----7---5---2---------------|
A|---------------------------------------------------|
E|---------------------------------------------------|

(parte 5)

Am

e|---------------------------------------------------|
B|-0h1-----1-3---0----1--0h1-----1-3---0-------------|
G|-------0---------0--2--------0---------0-----------|
D|-----0-------0------2------0-------0---------------|
A|--------------------0------------------------------|
E|---------------------------------------------------|

open in browser PRO version

Are you a developer? Try out the HTML to PDF API

pdfcrowd.com

Am
Em
De tarde quero descansar, chegar at a praia e ver
Am
se o vento ainda est forte e vai
Em
ser bom subir nas pedras sei
C
Que fao isso pra esquecer
Bb9
Eu deixo a onda me acertar
Am
F
e o vento vai levando tudo embora

Am

e|------------------------------------------|
B|-1------1---------------1-----------------|
G|-0----0-------0-------2-------2-----------|
D|-2--2-------2---2---3-------3---3---------|
A|-3--------3-------------------------------|
E|------------------1-------1---------------|

Em

Dm

e|------------------------1-----------------|
B|-------0--------------3-------3-----------|
G|-----0-------0------2-------2---2---------|
D|---2-------2---2--0-------0---------------|
A|------------------------------------------|
E|-0-------0--------------------------------|
(passagem)
F

open in browser PRO version

Em

Are you a developer? Try out the HTML to PDF API

pdfcrowd.com

e|------------------------------------------|
B|-0---1---3-0-------1---------------0------|
G|---0---0---------2-------2-------0--------|
D|---------------3-------3---3---2----------|
A|-----0---2--------------------------------|
E|-3-----------1-------1-------0------------|

Dm

Bb9

e|---------------1--------------------------|
B|-------------3-------3---------1----------|
G|-----0-----2-------2---2-----3-------3----|
D|---2---2-0-------0---------3-------3---3--|
A|-------------------------1-------1--------|
E|-0----------------------------------------|

Am
e|------------------------------------------|
B|-------1----------------------------------|
G|-----0------------------------------------|
D|---2-------2------------------------------|
A|-0-------0--------------------------------|
E|------------------------------------------|

(parte 5 da intro)

Am

e|---------------------------------------------------|
B|-0h1-----1-3---0----1--0h1-----1-3---0-------------|
G|-------0---------0--2--------0---------0-----------|
D|-----0-------0------2------0-------0---------------|
A|--------------------0------------------------------|
E|---------------------------------------------------|
(solo)

open in browser PRO version

Are you a developer? Try out the HTML to PDF API

pdfcrowd.com

e|----12----10---8---7---5---3-----------------------|
B|---------------------------------------------------|
G|-12----11----9---7---5---4-------------------------|
D|---------------------------------------------------|
A|---------------------------------------------------|
E|---------------------------------------------------|

e|----12----10---8---7---5---3-----------------------|
B|---------------------------------------------------|
G|-12----11----9---7---5---4-------------------------|
D|---------------------------------------------------|
A|---------------------------------------------------|
E|---------------------------------------------------|
(repete partes 4 e 5 da intro)
(parte 4)
e|---------------------------------------------------|
B|---5---3---1----6---5---3----5---3---1-------------|
G|---------------------------------------------------|
D|-5---3---2----8---7---5----7---5---2---------------|
A|---------------------------------------------------|
E|---------------------------------------------------|

(parte 5)

Am

e|---------------------------------------------------|
B|-0h1-----1-3---0----1--0h1-----1-3---0-------------|
G|-------0---------0--2--------0---------0-----------|
D|-----0-------0------2------0-------0---------------|
A|--------------------0------------------------------|
E|---------------------------------------------------|

open in browser PRO version

Are you a developer? Try out the HTML to PDF API

pdfcrowd.com

Em
Agora est to longe ver
Dm
A linha do horizonte me distrai:
G
Am
G/B
F
Dos nossos planos que tenho mais saudade,
Em
Dm
Quando olhvamos juntos na mesma direo
Bb9
Am
Aonde est voc agora alm de aqui, dentro de mim?
( F
( C

G Am
Bb9 Am

Cm

F
F

G
Am
G )

Em

Am

Em )

G/B

e|------------------------------------------|
B|-4-----4---------3-----3------------------|
G|-----5-------5-------0-------0------------|
D|---5-------5---5---0-------0---0----------|
A|-3---3---3---3---2---2---2---2------------|
E|------------------------------------------|

Gm/Bb
e|------------------------------------------|
B|-3-----3----------------------------------|
G|-----0-------0----------------------------|
D|---0-------0---0--------------------------|
A|-1---1---1---1----------------------------|
E|------------------------------------------|

A4

open in browser PRO version

A4

Dm

Are you a developer? Try out the HTML to PDF API

pdfcrowd.com

e|---------------0-1-----1------------------|
B|-3-----3-2---3-------3-------3------------|
G|-----2-----2-------2-------2---2----------|
D|---2-------------0-------0----------------|
A|-0---0---0---0----------------------------|
E|------------------------------------------|

G/B

Am

e|------------------------------------------|
B|-------1----------------3---------------3-|
G|-----0-------0--------0-------2-------0---|
D|---2-------2---2----0-------2---2---0-----|
A|-3-------3----------------0-------2-------|
E|------------------3-----------------------|

Em

A7

e|------------------------------------------|
B|---------------0---------------2----------|
G|-----2-------0-------0-------0-------0----|
D|---3---3---2-------2---2---2-------2---2--|
A|-------------------------0-------0--------|
E|-1-------0-------0------------------------|

Dm

Dm/C

e|-------1---------------1------------------|
B|-----3-------3-------3-------3------------|
G|---2-------2---2---2-------2---2----------|
D|-0-------0--------------------------------|
A|-----------------3-------3----------------|
E|------------------------------------------|

open in browser PRO version

Are you a developer? Try out the HTML to PDF API

pdfcrowd.com

Bb9

e|------------------------------------------|
B|-------1----------------3-----------------|
G|-----3-------3--------0-------0-----------|
D|---3-------3---3----0-------0---0---------|
A|-1-------1--------------------------------|
E|------------------3-------3---------------|

e|------------------------------------------|
B|-------1----------------1-----------------|
G|-----0-------0--------2-------2-----------|
D|---2-------2---2----3-------3---3---------|
A|-3-------3--------------------------------|
E|------------------1-------1---------------|

Bb9

e|------------------------------------------|
B|-------1---------------3------------------|
G|-----3-------3-------0-------0------------|
D|---3-------3---3---0-------0---0----------|
A|-1-------1--------------------------------|
E|-----------------3-------0----------------|
Cm
Agimos certo sem querer
G/B
Foi s o tempo que errou
Gm/Bb
Vai ser difcil sem voc
A7(4)
A7
Dm
Porque voc est comigo o tempo todo
Quando vejo o mar

open in browser PRO version

Are you a developer? Try out the HTML to PDF API

pdfcrowd.com

C
Existe algo que diz:
G/B
Am
G
F
A vida continua e se entregar uma bobagem
Em
A7
Dm
J que voc no est aqui,
Dm/C
Bb9
G
O que posso fazer cuidar de mim
C
F
Quero ser feliz ao menos
Bb9
G
Lembra que o plano era ficarmos bem?

e|----12----10---8---7---5---3-----------------------|
B|---------------------------------------------------|
G|-12----11----9---7---5---4-------------------------|
D|---------------------------------------------------|
A|---------------------------------------------------|
E|---------------------------------------------------|

e|----12----10---8---7---5---------------------------|
B|---------------------------------------------------|
G|-12----11----9---7---5-----------------------------|
D|---------------------------------------------------|
A|---------------------------------------------------|
E|---------------------------------------------------|
(volta passagem)
e|------------------------------------------|
B|-0---1---3-0------------------------------|
G|---0---0----------------------------------|
D|------------------------------------------|
A|-----0---2--------------------------------|

open in browser PRO version

Are you a developer? Try out the HTML to PDF API

pdfcrowd.com

E|-3----------------------------------------|

e|------------------------------------------|
B|-------1----------------1-----------------|
G|-----0-------0--------2-------2-----------|
D|---2-------2---2----3-------3---3---------|
A|-3-------3--------------------------------|
E|------------------1-------1---------------|

E4

e|------------------------------------------|
B|------------------------------------------|
G|-------2----------------1-----------------|
D|-----2-------2--------2-------2-----------|
A|---2-------2---2----2-------2---2---------|
E|-0-------0--------0-------0---------------|
(parte 1 da intro)
e|---------------------------------------------------|
B|---5---3---1-----12----10---8----------------------|
G|---------------------------------------------------|
D|-5---4---2----12----10----9------------------------|

(2x)

A|---------------------------------------------------|
E|---------------------------------------------------|
(parte 4 da intro)

open in browser PRO version

Are you a developer? Try out the HTML to PDF API

pdfcrowd.com

e|---------------------------------------------------|
B|---5---3---1----6---5---3----5---3---1-------------|
G|---------------------------------------------------|
D|-5---3---2----8---7---5----7---5---2---------------|
A|---------------------------------------------------|
E|---------------------------------------------------|
(parte 5 da intro)(diferente)
C
e|---------------------------------------------------|
B|-0h1-----1-3---0----1------------------------------|
G|-------0---------0--0------------------------------|
D|-----0-------0------2------------------------------|
A|--------------------3------------------------------|
E|---------------------------------------------------|
(parte 2 da intro)
e|---------------------------------------------------|
B|---6---5---3----5---3---1--------------------------|
G|---------------------------------------------------| (2x)
D|-7---5---3----5---3---2----------------------------|
A|---------------------------------------------------|
E|---------------------------------------------------|
Am
Em
Am
- Ei, olha s o que eu achei:
C
F
E4
E
Cavalos-marinhos
( Am

Am

G/B

Em ) (2x)

C
Sei que fao isso pra esquecer
Bb9

open in browser PRO version

Are you a developer? Try out the HTML to PDF API

pdfcrowd.com

Eu deixo a onda me acertar...


violo

teclado

cavaco

A4

A7

A7(4)

Am

Am7

Bb9

X0 2 2 2 0

X0 2 2 3 0

X0 2 0 2 0

X0 2 0 3 0

X0 2 2 1 0

X0 2 0 1 0

X1 3 3 1 1

X3 2 0 1 0

Cm

Dm

Dm/C

E4

Em

X3 5 5 4 3

XX0 2 3 1

X3 X2 3 1

022100

022200

022000

133211

320003

G/B

Gm/Bb

X2 0 0 3 3

X1 0 0 3 3

Terra Live Music Studio


open in browser PRO version

Are you a developer? Try out the HTML to PDF API

pdfcrowd.com

Terra.com/Terra-Live-Music
Tus Artstas Favoritos estn en Terra Live Music Studio.

Contribuio: Danilo
Correes: DOUGLAS SOUZA , poderoso thor e mais 9

Comentrios (51)

140

Consegui tocar

103 conseguem

Voc precisa estar logado para comentar. Ainda no cadastrado? Cadastre-se


.

Email

Senha

enviar com entrio


Ainda no consegui tocar

cassiabuzios:
Postado em 24/06/2013 - 17:28

Especialssima!! Como tudo que o Renato e o Legio nos deixou... Uma obra prima!!
Denise:
Postado em 19/06/2013 - 10:52

Maravilhosaa
Mateus:
Postado em 09/06/2013 14:04

Essa ta sendo minha primeira musica vlw cifra club.


fernanda.nataly.73:
Postado em 20/05/2013 13:51

vc so muito bom
Ezio:

Cifra Club

Postado em 04/05/2013 00:42

Explicao to clara como a luz do sol....

C urtir
791.335 pessoas curtiram C ifra C lub.

cassiabuzios:
Postado em 03/04/2013 15:11

open in browser PRO version

Are you a developer? Try out the HTML to PDF API

pdfcrowd.com

Perfeita!!
dniillocobra:

P lug- in s oc ial do Fac ebook

Postado em 18/02/2013 11:33

Muito massa e linda ' foda decorar =/


cavik:
Postado em 04/02/2013 10:24

facil
cavik:
Postado em 04/02/2013 10:24

facil de mais
lounge:
Postado em 31/01/2013 22:47

Eu acho que voces poderiam dividir a cifra em "Violao 1" e "Violao 2", pois tem gente como eu que nao tem
paciencia pra ficar vendo video..
Emmanuel:
Postado em 16/05/2013 10:49

Verdade...E tem Internet que nem a minha que nem carrega vdeo...

Exibindo 11 de 51 comentrios

Mostrar m ais

semana

ms

1. Te Esperando

ver todos

geral

semana

ms

geral

1. Legio Urbana

Luan Santana
105.347 exibies

2. Vagalumes

352.543 exibies

2. Jorge e Mateus

Pollo
59.040 exibies

open in browser PRO version

Are you a developer? Try out the HTML to PDF API

325.287 exibies

pdfcrowd.com

3. Tempo Perdido

3. Charlie Brown Jr.

Legio Urbana
51.634 exibies

209.566 exibies

4. 93 Million Miles

4. Luan Santana

Jason Mraz
47.455 exibies

185.564 exibies

5. S Os Loucos Sabem

5. Thalles Roberto

Charlie Brow n Jr.


40.574 exibies

140.726 exibies

6. O Que Que Tem

6. Fernandinho

Jorge e Mateus
38.969 exibies

124.603 exibies

7. A Hora Agora

7. Bruno e Marrone

Jorge e Mateus
36.283 exibies

103.391 exibies

8. Pais e Filhos

8. Victor e Leo

Legio Urbana
34.774 exibies

95.968 exibies

9. Faroeste Caboclo

9. Capital Inicial

Legio Urbana
33.332 exibies

10. Cho de Giz

92.119 exibies

Promoes Cifra Club - Camisetas, livros e kits na faixa!


Roberto Carlos

10.

Z Ramalho
33.274 exibies

voltar

Top 1000 cifras

RSS

Cifra Club News


Top 1000 cifras

88.780 exibies

mais

voltar

Top 1000 artistas

RSS

mais

1.047 ganhadores | seja o prximo

Mais Servios Cifra Club ID


Msica em Geral

open in browser PRO version

Are you a developer? Try out the HTML to PDF API

Notcias

pdfcrowd.com

Top 1000 cifras

Msica em Geral

Vdeo-aulas

Notcias

Top 1000 artistas

Guitarra

Professores

Cobertura de show s

Guitarra e Violo

Violo

Cursos Online

Entrevistas

Contrabaixo

Pedais & Pedaleiras

Tutoriais

Especiais

Bateria

Amplificadores

Livros

Colunas

Partituras

Contra-baixo

Dicionrio de acordes

Gaita

Teclado

Afinador

Guitar Pro

Bateria

Patches/Pedaleiras

Novidades

Canto

Pea uma cifra

Gaita

Envie suas cifras

OFF Topic
Veja outros fruns

Poltica de Privacidade

Anuncie

Cadastre-se

Fale conosco

ver en espaol .

1996 - 2013 Cifra Club o primeiro, maior e mais acessado do Brasil 310 mil msicas 5.2 milhes pessoas cadastradas

f acebook y outube

Exibir acordes

open in browser PRO version

Are you a developer? Try out the HTML to PDF API

twitter

Aviso Legal

pdfcrowd.com