Você está na página 1de 3

Dois corações

Banda Calypso

Tom: D (com acordes na forma de A)

Capotraste na 5ª casa
INTRO: A A E F#m D

E|----9-9-9-9-10-12--------------------9-10-9---------------------7-9-7-----------|
B|------------------12--12-12-12-10-12--------12-10--7-10-10-7-10------10---------|
G|------------------------------------------------------------------------9-------|
D|--------------------------------------------------------------------------------|
A|--------------------------------------------------------------------------------|
E|--------------------------------------------------------------------------------|

A E F#m D
pra você eu fiz canção te entreguei o meu amor
A E D
mas você não quis saber desprezou meu coração
A E F#m D
veja só que boba eu fui em querer te conquistar
A E D D E
assim não dar assim não dar
F#m E B D A E D
o amor só é amor quando dois corações se unem num só coração um so coração um só
D E
coração
F#m E B D A E D
o amor só é amor quando dois corações se unem num só coração um so coração um só
coração

(solo) A E F#m D A E D

E|---17-17-17-17-16-16-16-14-14-14-12-12/10-10-9-10-9--------------------7-9-7------|
B|----------------------------------------------------12-10-7-10-10--7-9-------10---|
G|--------------------------------------------------------------------------------9-|
D|----------------------------------------------------------------------------------|
A|----------------------------------------------------------------------------------|
E|----------------------------------------------------------------------------------|

E|----9-9-9-9-10-12--------------------9-10-9---------------------7-9-7-----------|
B|------------------12--12-12-12-10-12--------12-10--7-10-10-7-10------10---------|
G|------------------------------------------------------------------------9-------|
D|--------------------------------------------------------------------------------|
A|--------------------------------------------------------------------------------|
E|--------------------------------------------------------------------------------|

A E F#m D
pra você eu fiz canção te entreguei o meu amor
A E D
mas você não quis saber desprezou meu coração
A E F#m D
veja só que boba eu fui em querer te conquistar
A E D D E
assim não dar assim não dar

F#m E B D A E D
o amor só é amor quando dois corações se unem num só coração num só coração num só
D E
coração
F#m E B D A E D
O amor só é amor quando dois corações se unem num só coração num só coração num só

coração

(solo)A E F#m D (A E D)
A* B* D* E* F#m*
5ª 5ª 5ª 5ª 5ª
1
1 2 3 1 2 2 3
3
2 3 4 3 4

*D com *E com *G com *A com *Bm com


forma de A forma de B forma de D forma de E forma de
F#m