Você está na página 1de 3

Volta Pra Mim

Roupa Nova
Composio: Cleberson Horsth / Ricardo Feghali

Tom: D

[Intro] D A/C# Bm G D/A G/A D

[Riff]

E|---------------------------------------------|
B|--10-8-7-------------------------------------|
G|---------9-7-6-----7----6-7-7/9--7-----------|
D|----------------9----------------------------|
A|---------------------------------------------|
E|---------------------------------------------|
D G6/D D G6/D
Amanheci sozinho, na cama um vazio
D Bm Em A4
Meu corao que se foi, sem dizer se voltava depois
D F#m G Gm6
Sofrimento meu, no vou aguentar
D G/A D [Riff]
Se a mulher que eu nasci pra viver, no me quer mais

D G6/D D G6/D
Sempre depois das brigas ns nos amamos muito
D Bm Em A4
Dia e noite a ss, o universo era pouco pra ns
D F#m G Gm6
O que aconteceu, pra voc partir assim
D G/A D
Se te fiz algo errado perdo, volta pra mim

Bb F C G
Essa paixo meu mundo, um sentimento profundo
D A E
Sonho acordado um segundo que voc vai ligar
C G D A
O telefone que toca, eu digo al sem resposta
C G A4 A
Mas no desliga escuta o que eu vou te falar

D A/C# Bm D/F# G
Eu te amo e vou gritar pra todo mundo ouvir
D Bm A4 A
Ter voc meu desejo de viver
D A/C# Bm D/F# G
Sou menino e teu amor que me faz crescer
D G D
E me entrego corpo e alma pra voc

[Solo]

D Bm Em A4 D F#m
E|-10--9h10p9-7------------------------7-9-10-12-12b(14)-----12b(14)-12b(14)p10---|
B|----------------10-8--8h10-8-------10-----------------10-10------------------10-|
G|-----------------------------11-9-----------------------------------------------|
D|--------------------------------------------------------------------------------|
A|--------------------------------------------------------------------------------|
E|--------------------------------------------------------------------------------|
G Gm4 D G/A D
E|--------------------------------------------------------------------------------|
B|-8-8-10b(12)--------------------------------------------------------------------|
G|-------------9-11-12--11-12-14-10h11--7-7-7---------7-9-7-----------------------|
D|--------------------------------------------9-7-7h9-----------------------------|
A|--------------------------------------------------------------------------------|
E|--------------------------------------------------------------------------------|
E|------------------------10-12-15-14---------------------------------------------|
B|--------10-12-10--10-12-------------15------------------------------------------|
G|-7-9/11--------------------------------14-14/15---------------------------------|
D|--------------------------------------------------------------------------------|
A|--------------------------------------------------------------------------------|
E|--------------------------------------------------------------------------------|
Bb
Essa paixo....

A A/C# A4 Bb Bm C
1
1 2 3 1 1 2 2
3 2 3 4 2 3
2 3 4
3 4

D D/A D/F# E Em F
1
1 2 1 2 1 2 3 2 3 1 2 2
3 3 4 3 4
F#m G G/A G6/D Gm4 Gm6
1
1 1
2 3 1 3 4 2 3 4
3 4 2 1
3 4 2 3 4