Você está na página 1de 3

Skank - Dois Rios

(dedilhado) P . I . M . I .
A.

E|---------------------------------------------------------------------------------
-------------------|
B|-----0---------0--------------------0---1---0-------------0---1---
0-----------------1---------------|
G|-2-------2---------2---------2---------------------2---------------------
2-----------------2-----2--|
D|------------------------
2---------------------------------------------------------------------------|
A|-----
0----------------------------------------------------------------------------------
------------|
E|------------------------4------------3-----------------------
2-------------------------1------------|

Am Am/G#
O céu está no chão
Am/G F#m7/5- F
O céu não cai do alto é o claro, é a escuridão
Am Am/G#
O céu que toca o chão
Am/G F#m7/5-
O céu que vai no alto, dois lados deram as mãos
Am
Como eu fiz também
D
Só pra poder conhecer
C Eb G
O que a voz da vida vem dizer

(refrão)
Bm
Que os braços sentem
Em
e os olhos vêem
Bm Am D
e os lábios beijam dois rios inteiros
G G5+
sem direção

Am Am/G#
O Sol é o pé a mão
Am/G F#m7/5- F
O Sol é a mãe e o pai dissolvem a escuridão
Am Am/G#
O Sol se põe se vai
Bm7 F#m7/5- F
e após se pôr o sol renasce no Japão
Am
Eu vi também
D
Só pra poder entender
C Eb G
Na voz da vida ouvi dizer

(refrão)
Bm
Que os braços sentem
Em
e os olhos vêem
Bm Am D
e os lábios beijam dois rios inteiros
G G7
sem direção

C Cm G G/F
E o meu lugar é esse ao lado seu no corpo inteiro
C Cm G G/F
Do meu lugar hoje o seu lugar é o meu amor primeiro
Em Eb
O dia e a noite as 4 estações

Am Am/G#
O céu está no chão
Am/G F#m7/5- F
O céu não cai do alto é o claro, é a escuridão
Am Am/G#
O céu que toca o chão
Am/G F#m7/5-
O céu que vai no alto, dois lados deram as mãos
Am
Como eu fiz também
D
Só pra poder conhecer
C Eb G
O que a voz da vida vem dizer

(refrão)
Bm
Que os braços sentem
Em
e os olhos vêem
Bm Am D
e os lábios beijam dois rios inteiros
G G/F
sem direção

C Cm G G/F
E o meu lugar é esse ao lado seu no corpo inteiro
C Cm G G/F
Do meu lugar hoje o seu lugar é o meu amor primeiro
Em Eb
O dia e a noite as 4 estações

(refrão)
G Bm
Que os braços sentem
Em
e os olhos vêem
Bm Am D
e os lábios beijam dois rios inteiros
G Cm G
sem direção

----------------- Acordes -----------------


Am = X 0 2 2 1 0
Am/G = 3 X 2 2 1 X
Am/G# = X X 6 5 5 5
Bm = X 2 4 4 3 2
Bm7 = X 2 4 2 3 2
C = X 3 2 0 1 0
Cm = X 3 5 5 4 3
D = X X 0 2 3 2
Eb = X 6 5 3 4 3
Em = 0 2 2 0 0 0
F = 1 3 3 2 1 1
F#m7/5- = 2 X 2 2 1 X
G = 3 2 0 0 0 3
G/F = 1 X X 0 0 3
G5+ = 3 X 1 0 0 X
G7 = 3 5 3 4 3 3