Você está na página 1de 8

Luz do Sol - Caetano Veloso Tom: G

D6(9) Am7
Luz do sol
Aº G7M Gm6
Que a folha traga e traduz
F#m7 B7(9)
em verde novo
A#7M Bb7 D#7+ D7M(9)
Em folha, em graça, em vida em força, em luz

D6(9) Am7
Céu azul
Aº G7M Gm6
Que vem até onde os pés
F#m7 B7(9) A#7M D7M(9) D7/4(9) D7(9)
Tocam na terra e a terra inspira e exala seus azuis

G7M
Reza, reza o rio
Gm6 D7M(9) D7/4/9 D7/9
Córrego pro rio, o rio pro mar
G7M Gm6 D7M(9)
Reza correnteza, roça a beira, doura a areia

C#m7/11 C7/13
Marcha um homem sobre o chão
Bm7 Bm6
Leva no coração uma ferida acesa
Em7/9 A7(13)
Dono do sim e do não
D7M(9) D7M(9)
Diante da visão da infinita beleza
G#m7(b5) G7(#11) F#m7 B7(9)
Finda por ferir com a mão essa delicadeza a coisa mais querida
E7/13 Em7 A7(9)
A gló.....ria da vi.....da

D6(9) Am7
Luz do sol
Aº G7M Gm6
Que a folha traga e traduz
F#m7 B7(9)
Em verde novo
A#7M Bb7 D#7+ D7M(9)
Em folha, em graça , em vida em força, em luz

G7M
Reza, reza o rio
Gm6 D7M(9) D7/4/9 D7/9
Córrego pro rio, o rio pro mar
G7M Gm6 D7M(9)
Reza correnteza, roça a beira, doura a areia
C#m7/11 C7/13
Marcha um homem sobre o chão
Bm7 Bm6
Leva no coração uma ferida acesa
Em7/9 A7(13)
Dono do sim e do não
D7M(9) D7M(9)
Diante da visão da infinita beleza
G#m7(b5) G7(#11) F#m7 B7(9)
Finda por ferir com a mão essa delicadeza a coisa mais querida
E7/13 Em7 A7(9)
A gló.....ria da vi.....da

D6(9) Am7
Luz do sol
Aº G7M Gm6
Que a folha traga e traduz
F#m7 B7(9)
Em verde novo
A#7M Bb7 D#7+ D7M(9)
Em folha, em graça , em vida em força, em luz

Um Pequeno Imprevisto

Os Paralamas do Sucesso - Tom: F [Intro] F C F C [Riff]


G|--2-0----------2-3-0--|
D|------3-0---0---------|
A|----------3-----------|

F Gm F
Eu quis querer o que o vento não leva |
Gm C
Pra que o vento só levasse o que eu não quero
F Gm F
Eu quis amar o que o tempo não muda
Gm C
Pra que quem eu amo não mudasse nunca

Cm Bb Bbm
Eu quis prever o futuro, consertar o passado |Calculando os riscos
Am G Bb F Dm Am
Bem devagar, ponderado |Perfeitamente equilibrado|Até que num dia qualquer
Bb F Dm Am
Eu vi que alguma coisa mudara | Trocaram os nomes das ruas
Bb Bº
E as pessoas tinham outras caras
F C Dm
No céu havia nove luas
C# C Bb
E nunca mais encontrei minha casa
F C Dm
No céu havia nove luas
C# C Bb
E nunca mais encontrei minha casa ( F C F C )
Composição de Herbert Vianna / Thedy Corrêa
Samba Pa Ti - Santana - Tono: G
G Bm Em
B|---------------8-||-------------|-6/7---7h8p7---|-------|
G|---------7-8h9---||-5h7-----4h7-|---------------|-------|
D|--7-9-10---------||--------5----|-------------9-|-------|

Am7 G Bm Em
B|----------------8-|-------------|-6/7-7--7h8p7--|----------------|
G|----------7-8h9---|-5h7-----4h7-|---------------|----------------|
D|---7-9-10---------|--------5----|-------------9-|----------------|

Am7 D Am7
e|--5h7-5h7p5---------5----|-----7------|--5h7p5h7p5---------------|
B|------------8-(8)p5-8b10-|-----10b12--|------------8----(8)p5----|

D [hold] Am Bm
B|-8b10r8p5-5h7p5--|---------5---------5--|---------|------4/5h7------|
G|---------------7-|-(7)------7-5\4/5h7---|---------|-4--7-------4--7-|
D|-----------------|--------------------7-|-(7)-----|-----------------|

Am D (D) G
e|-5h7-5h7p5-5---------5----|-(5)----|-----------------|--------------|
B|-------------8-8p5-8-8b10-|-(8b10)-|---------------8-|--------------|
G|--------------------------|--------|---------7-8h9---|-5h7------4-7-|
D|--------------------------|--------|--7-9-10---------|--------------|

Bm Em Am7 G
B|-6/7-7--7h8p7---|--------|----------------8-|--------------|
G|-------------7--|-9------|----------7-8h9---|-5h7-----4-7--|
D|--------------9-|--------|---7-9-10---------|--------------|

Bm Em ~~~~ Am7
e|---------------|------12---------12-----------------|-5h7-5h7p5-----5----|
B|-6/7-7--7h8p7--|----12---15b17-----14-14b16r14p12---|----------8p5--8b10-|
G|---------------|--12-----------------------------14-|--------------------|
D|-------------9-|------------------------------------|--------------------|

D ~~~~~~ Am7 D [hold] Am


|-(5)-------7-----|-5h7p5h7p5----|-3/5----------|-------------------|--------|
|-(8b10)----10b12-|----------8p5-|-----5-5h7p5--|------5----------5-|--------|
|-----------------|--------------|------------7-|-(7)---7-5\4/5h7---|--------|
|-----------------|--------------|--------------|-------------------|-7--7/8-|
|-----------------|--------------|--------------|-------------------|--------|
|-----------------|--------------|--------------|-------------------|--------|

Bm Am D (D)
|---------------5h7-5h7p5-5---------5-----|--(5)------5/7-|---(7)-----------|
|----------------|---------8-8p5-8-[8]b10-|-([8]b10)------|-----------------|
|--7-7--8/9-7-7--|------------------------|---------------|-----------------|
|-9---9------9---|------------------------|---------------|-----------------|
|----------------|------------------------|---------------|-----------------|
|----------------|------------------------|---------------|-----------------|

(w/Fill 1 these 2 measures.........)


G Bm Bbm Am D
|------------7-7-----|-(7)----------|--------5h7-5h7p5----|----------5------|
|---8-8-8-10---10b12-|(10b12)--7----|-(7)-------------8-7-|-(7)-7-8---------|
|--------------------|---------9b11-|-(9b11)--------------|-----------------|
|--------------------|--------------|---------------------|-----------------|
|--------------------|--------------|---------------------|-----------------|
|--------------------|--------------|---------------------|-----------------|

Fill 1:
~~~~~~~~~~~~~~~~~~
|----10-------12--------|------------12------|
|----13b15----15b17-----|--------------------|
|-----------------------|--------------------|
|-----------------------|--------------------|
|-----------------------|--------------------|
|-----------------------|--------------------|

(w/Fill 2 these three measures...............)


G Bm Bbm Am
|-----------7-7-----|-(7)-----------|--------------5h7-5h7p5-----|---------5-|
|--8-8-8-10---10b12-|-(10b12)--7----|------------------------8-7-|-(7)-7-8---|
|-------------------|----------9b11..(hold)....r9----------------|-----------|
|-------------------|---------------|----------------------------|-----------|
|-------------------|---------------|----------------------------|-----------|
|-------------------|---------------|----------------------------|-----------|

Fill 2: (....doubles 1st gtr....)


|-------10------|--------------5h7-5h7p5-----|---------5-|
|-------13b15....(hold)...r13------------8-7-|-(7)-7-8---|
|---------------|----------------------------|-----------|
|---------------|----------------------------|-----------|
|---------------|----------------------------|-----------|
|---------------|----------------------------|-----------|

Gtr. Solo: double time


G Am G Am ~~~~~~~~~~~~
|-----------3-5-|-(5)/7--------|--------------3-5--|------------------------|
|---3-3-3h5-----|--------------|------3-3-3h5------|--3h5p3----------(3)h5--|
|---------------|--------------|-------------------|------------------------|
|---------------|--------------|-------------------|------------------------|
|---------------|--------------|-------------------|------------------------|
|---------------|--------------|-------------------|------------------------|

G Am G Am
|-----------3-5-|-(5)/7--(7)\3-|--------------3-5--|--------------------|
|---3-3-3h5-----|--------------|------3-3-3h5------|--3h5p3-----------3-|
|---------------|--------------|-------------------|--------------------|
|---------------|--------------|-------------------|--------------------|
|---------------|--------------|-------------------|--------------------|
|---------------|--------------|-------------------|--------------------|

G Am
~~~~ ~~~~ ~~~~ ~~~~ ~~~~
|-8h10----10----10----10----10----10-|-(10)-8-7-7p5---------5--7-----|
|------------------------------------|--------------8-7--8-----------|
|------------------------------------|----------------------------7--|
|------------------------------------|-------------------------------|
|------------------------------------|-------------------------------|
|------------------------------------|-------------------------------|

G Am G
~~~ ~~~ ~~~ ~~~ ~~~
|-3--------------------|-------0------------7/10-|-10--10--10--7-10-7-10--10-|
|---3/5\3-5-3b5r3p0----|------0-3p0--------------|---------------------------|
|------------------2b4-|-(2b4)-----2b4r2p0-------|---------------------------|
|----------------------|------------------2------|---------------------------|
|----------------------|-------------------------|---------------------------|
|----------------------|-------------------------|---------------------------|

Am G Am
~~~~ ~~~~ ~~~~ ~~~~ ~~~~
|-(10)-8-7-7p5------5-7-|-3--------12-----|---------------------------------|
|-------------8-7-8-----|---3/5\3-----15b17r15---15---15---15---15---15-----|
|-----------------------|-----------------|---------------------------------|
|-----------------------|-----------------|---------------------------------|
|-----------------------|-----------------|---------------------------------|
|-----------------------|-----------------|---------------------------------|

G Am
~~~~ ~~ ~~ ~~~~ ~~~~~~~
|------------------------------|----------------------|
|(15)-15-15-15p12--------------|----------15--(15)p12-|
|----------------14b16r14p12---|-12-14b16-------------|
|---------------------------14-|----------------------|
|------------------------------|----------------------|
|------------------------------|----------------------|

G Am
|-------------------12-------------|-------------------------------|
|-15-15b17r15p12-15----15b17r15p12-|-15-15-15----------------------|
|----------------------------------|----------14b16-14b16r14p12----|
|----------------------------------|----------------------------14-|
|----------------------------------|-------------------------------|
|----------------------------------|-------------------------------|

G Am
~~~~~~ ~~~~~~
|-----------------------|--------------------12----------------------|
|-----------------------|------------------12--15p12-----------15b17-|
|-12----14b16----14b16.....r14--14p12-14b16---------14b16r14p12------|
|-----------------------|--------------------------------------------|
|-----------------------|--------------------------------------------|
|-----------------------|--------------------------------------------|

G Am
~~~
|-(15b17)r15p12--------------------------|-12-14-14--15-15--17-17--15-15--14-|
|--------------15b17r15p12---------------|-----------------------------------|
|-------------------------14b16r14p12----|-----------------------------------|
|------------------------------------14--|-----------------------------------|
|----------------------------------------|-----------------------------------|
|----------------------------------------|-----------------------------------|

G Am
|-14--12-12\10-12\---------|--------------------------|
|------------------12h13p12\10h12p10\8-10p8\7-5-----5-|
|--------------------------|--------------------7b9---|
|--------------------------|--------------------------|
|--------------------------|--------------------------|
|--------------------------|--------------------------|

G Am ~~~
|------5---------------12---|------------12----------------------------|
|----5-----------15b17------|--12--15b17----14b16r14p12--14b16r14p12---|
|-7b9---7b9r7p5/----------14b16-------------------------------------14-|
|---------------------------|------------------------------------------|
|---------------------------|------------------------------------------|
|---------------------------|------------------------------------------|

G ~~~ Am
|-------------17b19-|-[17]b19r17p15-17-17------12h14-|
|-------------------|---------------------17\--------|
|-12-14b16----------|--------------------------------|
|-------------------|--------------------------------|
|-------------------|--------------------------------|
|-------------------|--------------------------------|

G Am
|-15p14p12-14p12\10-12p10-8-7-5-3-5-|-5-------5h7p5-------------5--/11/12---|
|---------------------------------5-|---5-7/8-------8-8\7p5---5-------------|
|-----------------------------------|----------------------7b9--------------|
|-----------------------------------|---------------------------------------|
|-----------------------------------|---------------------------------------|
|-----------------------------------|---------------------------------------|

G Am ~~~ G
|-12\10-10\8-8\7-7\5-5\3-3\2-2p0--------------|---3-5-7-/10\6/7-5-7-|
|-------------------------|-----3p1-1p0-0-----|---------------------|
|-------------------------|---------------2---|-0-------------------|
|-------------------------|-------------------|---------------------|
|-------------------------|-------------------|---------------------|
|-------------------------|-------------------|---------------------|

Am ~~ G
|-----------------|-------------------------------------------------------|
|-------5\3-3h5p3-|-5p3-0h3h5p3p0h3h5p3p0h3h5p3p0h3h5p3p0-3h5p3p0-3h5p3p0-|
|-7b9r7-----------|-------------------------------------------------------|
|-----------------|-------------------------------------------------------|
|-----------------|-------------------------------------------------------|
|-----------------|-------------------------------------------------------|

Am G
|---------------------------------/12-|-22--22-21--21-20--20--19--19\-----|
|-3h5p3p0-3h5p3p0-3h5p3p0-3h5p3p0-----|-----------------------------------|
|-------------------------------------|-----------------------------------|
|-------------------------------------|-----------------------------------|
|-------------------------------------|-----------------------------------|
|-------------------------------------|-----------------------------------|

Am
|-17-17-15-14-12-----------------|
|---------------15b17r15p12------|
|--------------------------14b16-|
|--------------------------------|
|--------------------------------|
|--------------------------------|

G
|---12------------12-------------------------12----------------15b17-|
|-12--15p12-----12--15p12-----12-15p12-----12--15p12-----------------|
|----------14b16---------14b16--------14b16---------14b16r14p12------|
|--------------------------------------------------------------------|
|--------------------------------------------------------------------|
|--------------------------------------------------------------------|

Am G Am ~~~~
|-(15b17)r15p12----------------15-|-14-12----------12-|---------------------|
|--------------12-15--------------|------15p12-15\3---|------------------10-|
|-------------------14b16r14-12---|-------------------|-14b16r14-12--12\1---|
|---------------------------------|-------------------|------------14-------|
|---------------------------------|-------------------|---------------------|
|---------------------------------|-------------------|---------------------|

G Am G Am
~~~~ ~~~
|-7h8----7------7------|-5---0---------0-|-12-10----|-12--12h14-12h14p12----|
|--h8-10---8-10---8-10-|---5---5-5b7r5---|----------|-----------------------|
|----------------------|-----------------|----------|-----------------------|
|----------------------|-----------------|----------|-----------------------|
|----------------------|-----------------|----------|-----------------------|
|----------------------|-----------------|----------|-----------------------|

G Am G
~~~ ~~~~~~~~~~~ ~~~
|-----------------------|---------12h14-12h14p12-|-------------------|
|-15--12-15-15b16r15b17-|-(15b17)----------------|-15--12-15p12------|
|-----------------------|------------------------|-------------14b16-|
|-----------------------|------------------------|-------------------|
|-----------------------|------------------------|-------------------|
|-----------------------|------------------------|-------------------|

Am
|-------------------------------------------------------------|
|-------------------------------------------------------------|
|-(14b16)r14p12-14b16r14p12-14-[14]b16r14p12-14-[14]b16r14p12-|
|-------------------------------------------------------------|
|-------------------------------------------------------------|
|-------------------------------------------------------------|

G (Begin to fade)
|-------------------------------------------|
|------12-----12-----12-----12-----12-15b17-|
|-14b16--14b16--14b16--14b16--14b16---------|
|-------------------------------------------|
|-------------------------------------------|
|-------------------------------------------|

Am
|-12-------12----------------------12-12\---------------------|
|--------12--15p12---------------12---12\---------------------|
|---14b16---------14b16r14p12--12-----12\-X\-------/X-X\------|
|----------------------------14-------------\X\---/-----\-----|
|----------------------------------------------\X/------------|
|-------------------------------------------------------------|

G Am G
|-3p2-0-------------|--------------|---3-5---5-3---2/-|
|-------3-0---------|--------------|-------5-----3----|
|-----------0-------|--------------|------------------|
|-------------4-0-2-|--------------|------------------|
|-------------------|-0-2--2p0-----|------------------|
|-------------------|----------3-0-|-3----------------|

Am G Am
e|-12-----------------------12\10-10\7-7\5-5\3-3h5p3---------------------0--X/|
B|----------------------------|-----------------|---5-3b5r3p0---------0-0-0-X/|
G|--14b16r14p12-14b16r14p12---|-----------------|------------2b4r2p0-0-2------|
D|-------------------------14-|-----------------|-------------------2---------|

G Am
|-12------------------------12--------12---X\-12-15b17-17b19-19b22\-22b23-|
e|---15-12-----------------12--15p12-X---15-X\---|
B|--------14b16r14p12-14b16----------------------|

G
e|-7p5-3p2----------------|
B|---------5-3/5b7r5p3--3-|

Compositor Carlos Santana