Você está na página 1de 3

Soraya Moraes - Caminho No Deserto

[Intro] E B2 F# G#m
E B2 F# G#m

[Tab sol]

[Parte 1 De 2]
E|-----------------------------------------------------|
B|---7-9---9--9-9--7-7--------7-----6------------------|
G|-8--------------------8------------------8-----------|
D|--------------------------9----9-------9----9----6---|
A|-----------------------------------------------------|
E|-----------------------------------------------------|

Parte 2 de 2
E|-----------------------------------------------------|
B|-----------------------------------------------------|
G|-----------------------------------------------------|
D|---4-6---6--6-6--4-4--------4------------------------|
A|-6--------------------6----------4------6------------|
E|--------------------------7----7------7----7---4-----|

[Primeira Parte]

E B2
Estás aqui movendo entre nós
F# G#m
Te adorarei, Te adorarei
E B2
Estás aqui mudando destinos
F# G#m
Te adorarei, Te adorarei
E B2
Estás aqui operando milagres
F# G#m
Te adorarei, Te adorarei
E B2
Estás aqui transformando nossas vidas
F# G#m
Te adorarei, Te adorarei

[Refrão]

Meu Deus é
E
Deus de milagres, Deus de promessas
B2 F#
Caminho no deserto, luz na escuridão
G#m
Meu Deus, este é quem Tu és

Meu Deus é
E
Deus de milagres, Deus de promessas
B2 F#
Caminho no deserto, luz na escuridão
G#m
Meu Deus, este é quem Tu és
[Segunda Parte]

E B2
Estás aqui tocando os corações
F# G#m
Te adorarei, Te adorarei
E B2
Estás aqui curando multidões
F# G#m
Te adorarei, Te adorarei
E B2
Estás aqui restaurando corações
F# G#m
Te adorarei, Te adorarei
E B2
Estás aqui transformando histórias
F# G#m
Te adorarei, Te adorarei

[Refrão]

Meu Deus é
E
Deus de milagres, Deus de promessas
B2 F#
Caminho no deserto, luz na escuridão
G#m
Meu Deus, este é quem Tu és

Meu Deus é
E
Deus de milagres, Deus de promessas
B2 F#
Caminho no deserto, luz na escuridão
G#m
Meu Deus, este é quem Tu és

[Terceira Parte]

E
Enxuga as lágrimas
B2
Restaura os corações
F# G#m
Tu és a resposta, Jesus
E
Enxuga as lágrimas
B2
Restaura os corações
F# G#m
Tu és a resposta, Jesus

[Refrão Final]

Meu Deus é
E
Deus de milagres, Deus de promessas
B2 F#
Caminho no deserto, luz na escuridão
G#m
Meu Deus, este é quem Tu és

Meu Deus é
E
Deus de milagres, Deus de promessas
B2 F#
Caminho no deserto, luz na escuridão
G#m
Meu Deus, este é quem Tu és

Meu Deus é
E E
Deus de milagres, Deus de promessas
B2 B2 F#
Caminho no deserto, luz na escuridão
G#m
Meu Deus, este é quem Tu és

Meu Deus é
E E
Deus de milagres, Deus de promessas
B2 B2 F#
Caminho no deserto, luz na escuridão
G#m
Meu Deus, este é quem Tu és

Meu Deus é
E
Deus de milagres, Deus de promessas
B2 F#
Caminho no deserto, luz na escuridão
G#m
Meu Deus, este é quem Tu és

----------------- Acordes -----------------


B2 = X 2 4 4 2 2
E = 0 2 2 1 0 0
F# = 2 4 4 3 2 2
G#m = 4 6 6 4 4 4