Você está na página 1de 4

Delino Marçal - Deus É Deus

Intro: C G4/B Am7 G F C/E Dm7

[Solo Intro]

E|-----------------------7----------------------------|
B|------8------8------5-----------1-------------------|
G|-----------------------7--0---------0--------0------|
D|-9/10----7/9----5/7---------2h3---3---0h2--2---3----|
A|----------------------------------------------------|
E|----------------------------------------------------|

C G4/B Am7 G
E|------------------------------------------|
B|-1---1----1---1----1---1----0---0---------|
G|-0---0----0---0----0---0----0---0---------|
D|---2---2----0---0----2---2----0---0-------|
A|-3--------2--------0----------------------|
E|----------------------------3-------------|

F C/E Dm7
E|---------------------------8--------------|
B|-1---1----1---1----6---5h6----------------|
G|-2---2----0---2----5----------------------|
D|---3---3----2---2----7--------------------|
A|-------------------5----------------------|
E|-1--------0-------------------------------|

[Primeira Parte]

C9 G/B
Minha fé não está firmada
Am7 G/B
Nas coisas que podes fazer
C9 F G4 G
Eu aprendi a Te adorar pelo que és
Dm7 F/C G/B
Dele vêm o sim e o amém
C9 G/B Am7
Somente dele e mais ninguém
G F G4 F
A Deus seja o louvor

Parte 1 de 4
C9 G/B Am7 G/B
E|------------------------------------------|
B|-3---3----3---3----1---1---1----3---------|
G|-0---0----0---0----0---0---0----0---------|
D|---2---2----0---0----2---2---2----0-------|
A|-3--------2--------0------------2---------|
E|------------------------------------------|

Parte 2 de 4
C9 F G4 G
E|------------------------------------------|
B|-3---3----1---1----1---1----0---0---------|
G|-0---0----2---2----0---0----0---0---------|
D|---2---2----3---3----0---0----0---0-------|
A|-3----------------------------------------|
E|----------1--------3--------3-------------|

Parte 3 de 4
Dm7 F/C G/B C9 G/B Am7 G
E|-1----1-----------------------------------|
B|-1----1----3---3----3----3----1---0-------|
G|---2----2--0---0----0----0----0---0-------|
D|-0-----------0---0----2----0----2---0-----|
A|------3----2--------3----2----0-----------|
E|----------------------------------3-------|

Parte 4 de 4
F G4 F
E|-------------------1--8-------------------|
B|-1---1----1---1----1--8h10p8--8-----------|
G|-2---2----0---0----2----------7h9p7-------|
D|---3---3----0---0--3----------------------|
A|-------------------3----------------------|
E|-1--------3--------1----------------------|

[Refrão]

C9 G/B
Se Deus fizer, Ele é Deus
Am7 G
Se não fizer, Ele é Deus
F C/E
Se a porta abrir, Ele é Deus
Dm7 G
Mas se fechar, continua sendo Deus

C9 G/B
Se a doença vier, Ele é Deus
Am7 G
Se curado eu for, Ele é Deus
F C/E
Se tudo der certo, Ele é Deus
Dm7 G
Mas se não der, continua sendo Deus

[Primeira Parte – Repetição]

C9 G/B
Minha fé não está firmada
Am7
Nas coisas que podes fazer
C9 F G4 G
Eu aprendi a Te adorar pelo que és

Dm7 G
Dele vêm o sim e o amém
C9 G/B Am7
Somente dele e mais ninguém
G F G F G
A Deus seja o louvor
[Refrão]

C9 G/B
Se Deus fizer, Ele é Deus
Am7 G
Se não fizer, Ele é Deus
F C/E
Se a porta abrir, Ele é Deus
Dm7 G
Mas se fechar, continua sendo Deus

C9 G/B
Se a doença vier, Ele é Deus
Am7 G
Se curado eu for, Ele é Deus
F C/E
Se tudo der certo, Ele é Deus
Dm7 G C/E
Mas se não der, continua sendo Deus

[Frase Refrão]
E|----8----8------------------------------------------|
B|----8h10-8------8---8-0-----------------------------|
G|-10--------10/9-7h9-7-------------------------------|
D|----------------------------------------------------|
A|----------------------------------------------------|
E|----------------------------------------------------|

[Segunda Parte]

F C/E
Não o adoro pelo que Ele faz
Dm7 Am7
Eu o adoro pelo que Ele é
F
Haja o que houver
G F G C/E
Sempre será Deus

F C/E
Não o adoro pelo que Ele faz
Dm7 Am7
Eu o adoro pelo que Ele é
F
Haja o que houver
G F G
Sempre será Deus

[Refrão Final]

C9 G/B
Se Deus fizer, Ele é Deus
Am7 G
Se não fizer, Ele é Deus
F C/E
Se a porta abrir, Ele é Deus
Dm7 G
Mas se fechar, continua sendo Deus
C9 G/B
Se a doença vier, Ele é Deus
G#º Am7 D7/F# Gm7
Se curado eu for, Ele é Deus
C/E F C/E
Se tudo der certo, Ele é Deus
Dm7 G
Mas se não der, continua sendo Deus

[Final]

F
Deus é Deus
Am7
Deus é Deus
F G
Deus é Deus

F
Deus é Deus
Am7
Deus é Deus
F G4
Deus é Deus

----------------- Acordes -----------------


Am7 = X 0 2 0 1 0
C = X 3 2 0 1 0
C/E = 0 3 2 0 1 0
C9 = X 3 5 5 3 3
D7/F# = X X 4 5 3 5
Dm7 = X 5 7 5 6 5
F = 1 3 3 2 1 1
F/C = X 3 3 2 1 1
G = 3 2 0 0 0 3
G#º = 4 X 3 4 3 X
G/B = X 2 0 0 3 3
G4 = 3 5 5 5 3 3
G4/B = X 2 0 0 1 X
Gm7 = 3 X 3 3 3 X

Interesses relacionados