Você está na página 1de 2

Anna Julia - Los Hermanos

Tom: E
( afina��o 1/2 tom abaixo)

(intro 2x) E C#m

(primeira parte)

E C#m G#m A B E
Quem te ver passar assim por mim n�o sabe o que � sofrer
C#m G#m A B
Ter que ver voc� assim sempre t�o linda
E C#m G#m A B E
Contemplar o sol do teu olhar perder voc� no ar
C#m G#m A B C#m
Na certeza de um amor me achar um nada
G#m A
Pois sem ter teu carinho eu me sinto sozinho
B
Eu me afogo em solid�o

(refr�o)
E A B
� Anna Julia...
E A B
� Anna Julia...

E C#m G#m A B E
Nunca acreditei na ilus�o de ter voc� pra mim
C#m G#m A B
Me atormenta a previs�o do nosso destino
E C#m G#m A B E
Eu passando o dia a te esperar, voc� sem me notar
C#m G#m A B C#m
Quando tudo tiver fim, voc� vai estar com um cara
G#m A
Um algu�m sem carinho ser� sempre um espinho
B
Dentro do meu co...ra...��o

(refr�o)

(solo base) E A B E A B E A B E A B C#m G#m A E C#m G#m A B

(solo)

E|-----------------------
B|-----------------------
G|----------------------- (2x)
D|-----------------------
A|-7-7-7-9-7--7-7-7-9-7-6
E|-----------------------

E|-----------------------------------------------------------------
B|-----------------------------------------5-4---------------------
G|-9-9-9-11-9--9-9-9-11-9-8-9------------------4-6-4-2-4-----------
D|-----------------------------------------------------------------
A|--------------------------------2-4-2-4------------------2-4-2-4-
E|----------------------------12/----------------------------------

E|-12-11-------11-12-14-14-14-14-14-14-14-14-14
B|------12-14----------------------------------
G|---------------------------------------------
D|---------------------------------------------
A|---------------------------------------------
E|---------------------------------------------

C#m G#m A E
Sei que voc� j� n�o quer o meu amor
C#m G#m A E
Sei que voc� j� n�o gosta de mim
C#m G# A E
Eu sei que eu n�o sou quem voc� sempre sonhou
C#m G# A B
Mas vou reconquistar o seu amor todo pra mim

(refr�o)
E A B
� Anna Julia...
E A B
� Anna Julia...
E A B
� Anna Julia...
E A B E
� Anna Julia, Julia, Julia...ou ou ou