Você está na página 1de 2

A Semente

Bezerra da Silva

Tom: F

Intr: (Gm A Dm) 2x

Solo:
E|--10-10-10--10--9--12--------15-|----12--15--12-9------13----10--|
B|--------------------------------|------------------10------------|
G|--------------------------------|--------------------------------|
D|--------------------------------|--------------------------------|
A|--------------------------------|--------------------------------|
E|--------------------------------|--------------------------------|

----13----10---13----10--|-------------12--------12---10-|
-------------------------|-----10------------------------|
-------------------------|---------10--------------------|
-------------------------|-------------------------------|
-------------------------|-------------------------------|
-------------------------|-------------------------------|

-----9--10--12--13--10----------|----10--13--12--10-------------|
----------------------------10--|--------------------10---------|
--------------------------------|-------------------------------|
--------------------------------|-------------------------------|
--------------------------------|-------------------------------|
--------------------------------|-------------------------------|

Gm A Dm
/ Meu vizinho jogou uma semente no seu quintal
2x { Gm A Dm
de repente brotou um tremendo matagal

Gm A Dm
Quando alguem lhe perguntava que mato é esse que eu nunca vi
Gm A Dm
ele só respondia não sei não conheço isso nasceu ai (2x)

Gm A Dm
mas foi pintando sujeira o patamo estava sempre na jogada
Gm A Dm
porque o cheiro era bom e ali sempre estava uma rapaziada
Gm A Dm
os homens desconfiaram ao ver todo dia uma aglomeração
Gm A Dm
e deram o bote perfeito e levaram todos eles para averiguação, i dae...
Gm A Dm
na hora do sapeca aiaá o safado contou...
Gm A Dm
não precisa me bater que eu dou de bandeja tudo pro senhor
Gm A Dm
olha aí eu conheço aquele mato chefia e também sei quem plantou
Gm A Dm
/ quando os federais grampearam e levaram o vizinho inocente
2x { Gm A Dm
na delegacia ele disse doutor não sou agricultor desconheço a semente (2x)

[repete]

A Dm Gm
1
1 2 3 2
3

3 4