Você está na página 1de 4

MODOS GREGOS

jnio (Relativo Maior)


G||-----------------|-----------------|-----------------|--4----5----7----||
D||-----------------|-----------------|--4----5----7----|-----------------||
A||-----------------|--3----5----7----|-----------------|-----------------||
E||--3----5----7----|-----------------|-----------------|-----------------||
Drico
G||-----------------|-----------------|-----------------|--5----7----9----||
D||-----------------|-----------------|--5----7----9----|-----------------||
A||-----------------|--5----7----9----|-----------------|-----------------||
E||--5----7----8----|-----------------|-----------------|-----------------||
Frgio
G||-----------------|-----------------|-----------------|--7----9----11---||
D||-----------------|-----------------|--7----9----10---|-----------------||
A||-----------------|--7----9----10---|-----------------|-----------------||
E||--7----8----10---|-----------------|-----------------|-----------------||
Ldio
G||-----------------|-----------------|-----------------|--9----10----12--||
D||-----------------|-----------------|--9----10----12--|-----------------||
A||-----------------|--9----10----12--|-----------------|-----------------||
E||--8----10----12--|-----------------|-----------------|-----------------||
Mixoldio
G||-----------------|-----------------|-----------------|--11----12----14-||
D||-----------------|-----------------|--10----12----14-|-----------------||
A||-----------------|--10----12----14-|-----------------|-----------------||
E||--10----12----14-|-----------------|-----------------|-----------------||
Elio (Relativo Menor)
G||-----------------|-----------------|-----------------|--12----14----16-||
D||-----------------|-----------------|--12----14----16-|-----------------||
A||-----------------|--12----14----15-|-----------------|-----------------||
E||--12----14----15-|-----------------|-----------------|-----------------||
Lcrio
G||-----------------|-----------------|-----------------|--14----16----17-||
D||-----------------|-----------------|--14----16----17-|-----------------||
A||-----------------|--14----15----17-|-----------------|-----------------||
E||--14----15----17-|-----------------|-----------------|-----------------||

A frmula usada nas escalas maiores e menores a mesma e isso faz com que
sejam relativas. A utilizao dessa mesma frmula pode gerar ainda sete escalas
diferentes, que so chamados de mdulos (por serem meras modificaes de uma
nica escala).
Exemplificando:
Escala maior: TOM TOM ST TOM TOM TOM ST
Para encontrarmos a escala menor, usamos os mesmos intervalos na mesma
ordem, porm mudamos a posio:
TOM ST TOM TOM ST TOM TOM
Repare que, exatamente da mesma forma como foi feito na escala maior, logo aps
o intervalo de Semitom existem dois intervalos de Tom. Aps o outro intervalo de
semitom, existem trs intervalos de tom (so dois e mais um quando se continua a
escala prosseguindo da tnica para a segunda da oitava superior). Dessa forma,
usamos a mesma frmula, mas partindo de posies diferentes.
Como essa frmula possui sete notas, podemos comear de sete pontos diferentes. A
isso, so chamados graus.
1o grau: Jnio T 2 3 4 5 6 7+
2o grau: Drico T 2 3b 4 5 6 7b
3o grau: Frgio T 2b 3b 4 5 6b 7b
4o grau: Ldio T 2 3 4+ 5 6 7+
5o grau: Mixoldio T 2 3 4 5 6 7b
6o grau: Elio T 2 3 4 5 6b 7b
7o grau: Lcrio T 2b 3b 4 5b 6b 7b
Desmistificando os mdulos gregorianos:
Para tirar a dvida, s usar todas as notas da escala de C Maior. Para obter os
intervalos do 2o grau, s comear pela 2a nota da escala (D). Assim, teremos a
frmula do elio (nesse caso ser o D elio). Ao fazer o mesmo partindo da 3a nota
(E), teremos os intervalos do frgio (3o grau) que estaro nesse caso partindo do E,
e assim por diante.
O que inicialmente podem parecer escalas complexas e difceis de decorar na
verdade no o so quando damos uma olhada mais apurada:
1o grau (maior): Jnio T 2 3 4 5 6 7+ (T T ST T T T ST)
a escala maior - referncia
2o grau (menor): Drico T 2 3b 4 5 6 7b (T ST T T T ST T)
a escala menor com 6a maior.
3o grau (menor): Frgio T 2b 3b 4 5 6b 7b (ST T T T ST T T)
a escala menor com 2a bemol. Muito usada em flamenco.
4o grau (maior): Ldio T 2 3 4+ 5 6 7+ (T T T ST T T ST)
a escala maior com a 4a aumentada.
5o grau (maior): Mixoldio T 2 3 4 5 6 7b (T T ST T T ST T)
a escala maior com 7a menor. Tpica escala de blues.

6o grau (menor): Elio T 2 3b 4 5 6b 7b (T ST T T ST T T)


a escala menor - referncia.
7o grau (menor): Lcrio T 2b 3b 4 5dim 6b 7b (ST T T ST T T T)
Este o grau mais extico. Ele ideal para ser utilizado em improvisos em acordes
semidiminutos, por possuir 5b e 7b. Repare que ele no tem 7a diminuta, por isso,
quando for um acorde diminuto com stima diminuta esse mdulo no pode ser
utilizado.
MODO a *maneira* como uma escala varia. Voc pode encontrar a *maneira*
como os modos variam a partir de cada grau da escala de C.
C - D - E - F - G - A - B - C eh um EXEMPLO de modo jonio
D - E - F - G - A - B - C - D eh um EXEMPLO de modo dorico.. e assim vai indo
O importante saber a 'frmula' de cada modo. olhando os intervalos voc poder
ver que o modo Drico por exemplo, tem a seguinte 'formula' :
T - 2M - 3m - 4J - 5J - 6M - 7m - 8
Ele um modo menor (o que caracteriza isso a 3m) porm tem a 6 aumentada em
meio tom
(6M ao inves de 6m). assim que devemos estudar os outros modos.
Se for maior compare com a escala maior padro (modo Jnio) e veja o que muda.
Se for menor compare com a escala menor padro (modo Elio)
Apenas para reforar, devemos entender como so gerados os modos de uma
escala, por exemplo, vamos analisar os modos partindo da tonalidade de C maior
para um melhor entendimento.
Exemplo: C modo jnio
T - 2M - 3M - 4J - 5J - 6M - 7M - 8J
C D E FG AB C
Para formarmos o modo seguinte devemos, sobrepor a seqncia de notas s que
partindo da nota seguinte a qual deu inicio a escala, neste caso D(r), assim
montaremos o modo drico.
Exemplo: D modo drico
T - 2M - 3m - 4J - 5J - 6M - 7m - 8J
D E FG AB C D
Obs: perceba que a seqncia das notas a mesma do modo jnio, porm os
intervalos devem ser analisados em particular pelo fato de termos adotado uma
nova tnica, assim poderemos analisar se a escala gerada maior ou menor,
atravs da sua trade, montar seu arpejo e os acordes q o mesmo pode gerar...

Vamos a analise:
Modo Jnio -> Maior por possuir intervalo de tera maior.
Arpejo gerado: T 3M 5J 7M ou C E G B
Acordes formados: C, C7M, C7M (9), C6, C6(9), C7M (6), C7M (6,9), C(add9)
etc...
Modo Drico -> Menor por possuir intervalo de tera menor.
Arpejo gerado: T 3m 5J 7m ou D F A C
Acorde formados: Dm, Dm6, Dm6(9), Dm7, Dm7(9), Dm7(9,11), Dm7(9,11,13),
Dm(add9).
Na prtica:
Os modos nada mais so do que 7 formas prontas pra se executar uma escala,
sempre levando em considerao o grau da escala. Exemplo:
Vamos fazer a escala de G, se comearmos ela em G, estaremos executando G
Jnio, ou seja, tocando a escala de G a partir do 1 grau.
Se vamos ainda fazer a escala de G, mas comeando em A, estaremos executando A
Drico, ou seja tocando a escala de G a partir do 2 grau.
Se vamos ainda fazer a escala de G, mas comeando em B, estaremos executando B
Frgio, ou seja tocando a escala de G a partir do 3 grau. E assim vai ate
chegarmos em G Jnio novamente.
Cada modo se tem um shappe (forma), voc aprendendo a fazer os 7 modos, ai s
aplicar em cada grau de cada escala. Com isso voc far escalas naturais em todos
os 12 tons.

gutojaco@hotmail.com