Você está na página 1de 2

Intro: C#m7/9, C#m/B, A7M, E/G#, F#m7/9,C#m7/9, C#m/B, A7M, A/B...

E9 A/E
Eu não preciso ser reconhecido por ninguém,
E9 A/E
A minha glória é fazer com que conheçam a ti,
C#m7/9 C#m/B A7M E/G# F#m7/9 A/B
e que diminua eu pra que tu cresças Senhor, mais e mais
E9 A9
E como os serafins que cobrem o rosto ante a Ti
E9 A9
escondo o rosto pra que vejam Tua face em mim
C#m7/9 C#m/B A7M E/G# F#m7/9 A/B
e que diminua eu pra que Tu cresças Senhor mais e mais

E/G# A7M E/G# F#m7/9


No Santo dos Santos a fumaça me esconde,
C#m7/9 C#m/B A7M
Só os teus olhos me veêm, de baixo de tuas asas
E/G# F#m7/9 C#m7/9
É o meu abrigo, meu lugar secreto,
C#m/B A7M A/B E9 A E9 A
Só tua graça me basta e tua presença é o meu prazer...

Volta do início cantando apenas uma vez.


Repetindo o Refrão duas vezes... Entra o Solo.
(passagem) (passagem)
Solo: E9, / E/G# / A7M / E/G# / F#m7/9 / C#m7/9 /
C#m/B / A7M / E/G# / F#m7/9 ////

|---------------------------------------------------------|
|-4/5-5--4------------------------------------------------|
|----------4-4/6--6--6-6-6-4--1--1/2--2-2-2-4/6-----------|
|-----------------------------------------------4/6-------|
|---------------------------------------------------------|
|---------------------------------------------------------|

|---------------------------------------------------------|
|-4/5-5--4--------------------7h9--10--9--7---------------|
|----------4-4/6--6---6--8--9-----------------------------|
|---------------------------------------------------------|
|---------------------------------------------------------|
|---------------------------------------------------------|

Arranjo: B / C#m / E/G# / A9 / E9 / F#m ////


B / C#m / E/G# / A9 / E9 / F#m / F#m /// A/B...
Volta ao Refrão...

A7M E/G# F#m7/9


No Santo dos Santos a fumaça me esconde,
C#m7/9 C#m/B A7M
Só os teus olhos me veêm, de baixo de tuas asas
E/G# F#m7/9 C#m7/9
É o meu abrigo, meu lugar secreto,
C#m/B A7M A/B A9
F#m7/9 E9 B/D#
Só tua graça me basta e tua presença é o meu prazer... é o meu
prazer... é o meu prazer

C#m7/9 F#m7/9
Tua presença, tua presença é o meu prazer
E9 B/D#
Tua presença, tua presença é o meu prazer

(vai harmonizando fazendo substituições de terças)>>>> até fazer o


A/B para voltar ao Refrão.
:
·

Interesses relacionados