Você está na página 1de 21

Cifras da Legio Urbana

Pertence a : Fbio Corra da Cruz


NATLIA

Intr.: (Am D C Am C D )
(Am D C Am C D )
Vamos
falar de pesticidas
E de tragdias radioativas
De doenas incurveis
Vamos falar de sua vida
(Am D C Am C D )
Preste ateno ao que eles dizem
Ter esperana hipocrisia
A felicidade uma mentira
Am C D
E a mentira a salvao
Am
D
C
D
Beba desse sangue imundo
Am
D
C
D
E voc conseguir dinheiro
(Am D C Am C D )
E quando o circo pega fogo
Somos os animais na jaula
Am
Mas voc s quer algodo-doce
(Am D C Am C D )
No confunda tica com ter
Am
D
Quando penso em voc eu tenho febre
D
C
G
Mas quem sabe um dia eu escrevo
D
Uma cano pra voc
C
G
Mas quem sabe um dia eu escrevo

D
Uma cano pra voc
(Am D C Am C D )
complicado estar s
Quem est sozinho que o diga
Quando a tristeza sempre o ponto de
partida
Quanto tudo solido
D
C
G
preciso acreditar num novo dia
D
C
G
Na nossa grande gerao perdida
D
C
G
Nos meninos e meninas
D
C
G
Nos trevos de quatro folhas
D
C
G
A escurido ainda pior que essa luz
cinza
D
C
G
Mas estamos vivos ainda
D
C
G
E quem sabe um dia eu escrevo
D
Uma cano pra voc
C
G
Quem sabe um dia eu escrevo
D
Uma cano pra voc

Laventura
Intr.:

A7

G7 F7+

Am
Quando no h compaixo
Ou mesmo um gesto de ajuda
F
O que pensar da vida
Am
E daqueles que sabemos que amamos?
Dm
Quem pensa por si mesmo livre
F
E ser livre coisa muito sria
C
No se pode fechar os olhos
Eb
No se pode olhar pra trs
G
Sem se aprender alguma coisa
F
Pro futuro
C
G/B
Corri pro esconderijo e olhei pela
janela

F
Em
Am
O sol um s mas que sabe so duas
manhs
Bb
No precisa vir se no for pra ficar
F
Eb
Bb
Pelo menos uma noite e trs semanas
SOLO

Am

C
G
Nada fcil, nada certo
F
Am
No faamos do amor algo desonesto
C
G
Quero ser prudente e sempre ser correto
F
Am
Quero ser constante e sempre tentar ser
sincero
C
E queremos fugir

G
F
Am
Mas ficamos sempre sem saber
Am
Seu olhar no conta mais estrias
F
Am
No brota o fruto e nem a flor
Dm
F
E nem o cu belo e prateado
C
E o que eu era eu no sou mais
Eb
G
E no tenho nada pra lembrar
C
G/B
Triste coisa querer bem
Am
F
A quem no sabe perdoar
Em

Msica do Trabalho

Bm
Sem trabalho eu no sou nada
No tenho dignidade
E
D
No sinto o meu valor
Bm
No tenho identidade
Mas o que eu tenho
s um emprego
E um salrio miservel
E
D
Eu tenho o meu ofcio
Bm
Que me cansa de verdade
E5
D5
Bm
Tem gente que no tem nada
E5
D5
Bm
E outros que tem mais do que precisam
E5
D5 Bm
A5
Tem gente que no quer saber de
trabalhar
D
Em
Mas quando chega o fim do dia
A
D4 D
Eu s penso em descansar
Bm
Em
C
A
E voltar p'r casa pros teus braos
D
Em
Quem sabe esquecer um pouco
A
D
De todo o meu cansao
Bm
Em
Nossa vida no boa
C
A
E nem podemos reclamar
[ Introduo ]
Bm

Acho que sempre lhe amarei


Am
Bb
S que no lhe quero mais
F
No desejo, nem saudade
Eb
Bb
Sinceramente
nem verdade
SOLO

C
G
E eu sei porque voc fugiu
F
Am
Mas no consigo entender
C
G
E eu sei porque voc fugiu
F
Am
Mas no consigo entender

Sei que existe injustia


Eu sei o que acontece
Tenho medo da polcia
Eu sei o que acontece
G
F#
Se voc no segue as ordens
Bm
Se voc no obedece
G
E7
E no suporta o sofrimento
D|-9-7--9-7--9-7-...----|
A|----------------------|
E|----------------------|
Bm
Est destinado a misria
G
Mas isso
Bm
Eu sei o
G
Mas isso
Bm
Eu sei o

F#
eu no aceito
que acontece
E7
eu no aceito

que acontece
D
Em
E quando chega o fim do dia
A
D4 D
Eu s penso em descansar
Bm
Em
C
A
E voltar p'r casa pros teus braos
D
Em
Quem sabe esquecer um pouco
A
D4 D
Do pouco que no temos
Bm
Em
Quem sabe esquecer um pouco
C
A
De tudo que no sabemos
(D Em A D Bm Em C A)

LONGE DO MEU LADO


INTRODUO: Dm7 G7 Dm7 G7 F
Dm7
G7
Se a paixo fosse realmente um blsamo
Dm7
G7
O mundo no pareceria to equivocado
F
G
Te dou carinho, respeito e um afago
Dm7
G7
Mas entenda, eu no estou apaixonado
Am
A paixo j passou em minha vida
C
Foi at bom mas ao final deu tudo errado
Am
E agora carrego em mim
C
Uma dor triste, um corao cicatrizado
Dm7
G7
E olha que tentei o meu caminho
Am
F
Mas tudo agora coisa do passado
Dm7
G
Quero respeito e sempre ter algum
Am
F
Que me entenda e sempre fique a meu lado
Dm7
G7
Dm7
G7
Mas no,
no quero estar apaixonado
Solo F G7 Dm7 G7
Am
A paixo quer sangue e coraes arruinados
C
E saudade s mgoa por ter sido feito tanto estrago
Am
C
E essa escravido e essa dor no quero mais
Dm7
G7
Am
Quando acreditei que tudo era um fato consumado
Dm7
G7
Am
Veio a foice e jogou-te longe
Longe do meu lado
( Dm7 G7 Dm7 G7 F G )
Am
No estou mais pronto para lgrimas
C
Am
Podemos ficar juntos e vivermos o futuro, no o passado
Veja o nosso mundo
Dm7
G7
Eu tambm sei que dizem
Am
F
Dm7 G7 Dm7 G7
Que no existe amor errado
Dm7
G7
Dm7
G7
Mas entenda,
no quero estar apaixonado
Solo F G C

VIA LCTEA

Tom: B
Intro.: B B (A C#m A) B
B
C#m
Quando tudo est perdido

A
B
Sempre existe um caminho
B
C#m

Quando tudo est perdido


A
B
Sempre existe uma luz
F#m B
E
Mas no me diga isso
A
E
Hoje a tristeza no passageira
F#m7
B7
Hoje fiquei com febre a tarde
inteira
F#m7
G#m
E quando chegar a noite
A
B
F#m
E
Cada estrela aparecer uma lgrima
A
E
Queria ser como os outros
F#m
B
E rir das desgraas da vida
F#m7
G#m
Ou fingir estar sempre bem
A
B
F#m7
Ver a leveza das coisas com humor
E
Mas no me diga isso
F#m7
E
s hoje e isso passa
A
E
F#m7
B
S me deixe aqui quieto, isso passa
F#m7
B
A E
Amanh um outro dia, no
B
A
E
Eu nem sei porque me sinto assim
B
A
E
Vem de repente um anjo triste perto de
mim
A
E/G#
E essa febre que no passa

F#m7
B
A
(A G#m) F#m7
E meu sorriso sem graa, no me d
ateno
B
A
E
Mas obrigado por pensar em mim
B
C#m
Quando tudo est perdido
A
B
Sempre existe uma luz
B
C#m
Quando tudo est perdido
A
B
Sempre existe um caminho
B
C#m
Quando tudo est perdido
A
B
Eu me sinto to sozinho
B
C#m
Quando tudo est perdido
A
B
A/F#
No quero mais ser quem eu sou
(A/F# G#m) F#m7
Mas no me diga isso
B
No me d ateno
E
E obrigado por pensar em mim
A
(A G#m)
No me diga isso
F#m7
No me d ateno
B
E
E obrigado por pensar em mim
(A F#m7 B E) 3x

Msica ambiente
TOM: Am
INTRO.: (Am
D

F#m7

C
G/B
D G
E de quando havia tudo que existe
Em
Am
Quando choramos abraados
Em
Am
E caminhamos lado a lado
C
G
C
G
Por favor amor me acredite
C
G
D

Bb) -> 3 vezes

RIFF durante a parte (E Am)


e|-----------------------|
B|-----------------------|
G|-----------------------|
D|-----------2-0----0----|
A|----------------2------|
E|-0---3--5--------------|
Em
Am
Se um dia fores embora
Em
Am
Te amarei bem mais do que est hora
C
G/B
C
G/B
Me lembrarei de tudo que eu no disse

No h palavras para explicar o que eu


sinto
Em
C
D
G
Mesmo que tenhamos planejado
Em
C
D
Um caminho diferente
Em
C
D
G
Tenho mais do que eu preciso
Em
C
D
Estar contigo o bastante

Em
Am
Certas coisas de todo dia
Em
Am
Nos trazem a alegria
C
G/B
C
G/B
D G

De caminhamos juntos lado a lado por


amor
C
G
C
G
E quando eu for embora
C
G
D G
No, no chore por mim

ALOHA

Tom: G
Intr.: 1(F

G)

2(G

G)

F
C
G
e|-----0---------0--------------3-3-3-3-3-3--|
B|--3---3-----3---3-----3-------3-3-3-3-3-3--|
G|------------------------------0-0-0-0-0-0--| 4x
D|-3-------3-2-------2-0--------0-0-0-0-0-0--|
A|--------------------------0-2-2-2-2-2-2-2--|
E|------------------------------3-3-3-3-3-3--|
2
G
F
C
F
e|-------------------------------------------|
B|------------------5-5-5-6-6----------------|
G|-4---5/7-7-7-5-5---5-5---5-5---------------| 2x
D|-------------------------------------------|
A|-------------------------------------------|
E|-------------------------------------------|
G
Bb
Ser que ningum v
C
F
O caos em que vivemos ?
Bb
Bb/A
Gm
Os jovens so to jovens
C
Dm
C
E fica tudo por isso mesmo
G
Bb
C
F
A juventude rica, a juventude pobre
Bb
Bb/A
Gm
C
Dm
C
A juventude sofre e ningum parece
perceber
D
C
Eu tenho um corao
G
C
Eu tenho ideais
D
C
Eu gosto de cinema
G
C
E de coisas naturais
D
E penso sempre em sexo, oh yeah!
( B A)
Todo adulto tem inveja dos mais jovens
G
Bb
A juventude est sozinha
C
F
No h ningum para ajudar
Bb
Bb/A
Gm
A explicar por que que o mundo

C
Dm
C
este desastre que a est
Bb
Bb/A
Gm C Dm C
Eu no sei, eu no sei
(F Bb Dm)
Dizem que eu no sei nada
Dizem que eu no tenho opinio
Me compram, me vendem, me estragam
E tudo mentira, me deixam na mo
No me deixam fazer nada
E a culpa sempre minha, oh yeah!
(Ab Eb C Ab Eb F)
C
Bb
E meus amigos parecem ter medo
F
Bb
De quem fala o que sentiu
C
Bb
De quem pensa diferente
F
Bb
Nos querem todos iguais
C
Bb
F
Assim bem mais fcil nos controlar
Bb
C
E mentir, mentir, mentir
Bb
C
E matar, matar, matar
Bb
C
O que eu tenho de melhor: minha
esperana
(B A)
Que se faa o sacrifcio
E cresam logo as crianas

SOUL PARSIFAL

Introd.: C B7 Em Am Dm G Eb G
C
Bb6
A7
Ningum vai me dizer o que sentir
Meu corao est desperto
Dm7
Eb G C
sereno nosso amor e santo este lugar
Bb6
A7
Dos tempos de tristeza tive o tanto que
era bom
Dm7
Eu tive o teu veneno
Eb
G C
E o sopro leve do luar
B7 Bb6
A7/4 A7
Porque foi calma a tempesta---de
Dm
Eb
G
C
E tua lembrana, a estrela a me guiar
B7 Bb6
A7
Da alfazema fiz um bordado
Dm7
Eb
G
C
Vem, meu amor, hora de acordar
Bb6
Tenho anis

F
Tenho hortel
G
F
Tenho um cesto de flores
Eb
Ab
C/D D Em
Eu tenho um jardim e uma cano
Bm7
C
Vivo feliz, tenho amor
G
D/F#
Em
Eu tenho um desejo e um corao
Bm7
C
Tenho coragem e sei quem eu sou

A
A/G
F#7
V que a minha fora quase santa
Como foi santo o meu penar
Bm7
Pecado provocar desejo
C
E A
E depois renunciar
A/G
Estive cansado
F#7
Meu orgulho me deixou cansado
Bm7
Meu egosmo me deixou cansado
C
E
Minha vaidade me deixou cansado
A
A/G
No falo pelos outros
F#7
S falo por mim
Bm7
C
E
A
Ningum vai me dizer o que sentir
( A E C B )
Tenho jasmim tenho hortel
Eu tenho um anjo, eu tenho hortel
Com a saudade teci uma prece
E preparei erva-cidreira no caf da
manh
Ningum vai me dizer o que sentir
E eu vou cantar uma cano p'r mim
Final: ( A G F# D )

1. DE JULHO
Tom: D

Intr. D C Am G (com pestana)


D
C
Eu vejo que aprendi
Am
G
O quanto te ensinei
D
C
Am
G
E nos teus braos que ele vai saber
D
C
No h por que voltar
Am
G
No penso em te seguir
D
C
Am G
No quero mais a tua insensatez
G
D
O que fazes sem pensar aprendeste do
olhar
Em
Am
D
C Am G C G
E das palavras que aguardei pr ti
D
C

G
D/F# C
(Intr.)
Eu tenho um segredo e uma orao

No penso em me vingar
Am
G
No sou assim
D
C
Am G
A tua insegurana era por mim
D
C
No basta o compromisso
Am
G
Vale mais o corao
D
C
Am
J que no me entendes, no me julgues
G
No me tente
G
O que sabes fazer agora
Em
Veio tudo de nossas horas
G
A
D
D C
Am G C G
Eu no minto, eu no sou assim
D
G

Ningum sabia e ningum viu


D
G
Que eu estava a teu lado ento
G
Bm
Em
F#
Sou fera, sou bicho,
sou anjo e sou
mulher
G
Am
Sou minha me e minha filha,
D
Minha irm, minha menina
G
Bm
Em
F# G
Mas sou minha, s minha
e no de
quem quiser
Am
D
Bm
C
D / D
Bm C
D /2X
Sou Deus, tua deusa, meu amor
D
Bm
C
Alguma coisa aconteceu
D
Bm
C
D
G
C
Do ventre nasce um novo corao
G
No penso em me vingar
Bm Em
F# G
No sou assim
Am
D
A tua insegurana era por mim
G
No basta o compromisso
Bm
Em
Vale mais o corao
F# G
Am
Ningum sabia, ningum viu
D

Que eu estava ao teu lado ento


G
Bm
Em
Sou fera, sou bicho,
sou anjo e sou
mulher
F# G
Am
Sou minha me e minha filha,
D
Minha irm, minha menina
G
Bm
Em
F#
Mas sou minha, s minha,
e no de
quem quiser
G
Am
C D
D C
Am G / D C Am G
Sou Deus, tua deusa, meu amor
uuuuh...
D
C
Am
G
D
C
Am
G
Baby, baby, baby, baby
yeah
D
C
O que fazes por sonhar
Am
G
D
C
Am
G
o mundo que vir pr ti
e para mim
G
D
Em
A
Vamos descobrir o mundo juntos baby
D
G
Em
Quero aprender com o teu pequeno grande
corao
G
A
D
Meu amor,
meu amor
C

Bm

Ahhh....

Baby

ESPERANDO POR MIM


Tom: C
Intr. C

C
Acho que voc no
Am
Que o meu sorriso
F
Sou to cnico s

G
percebeu
Em
era sincero
G
C
vezes

O tempo todo
Em
G
Estou tentando me defender
C
G
Digam o que disserem
Am
O mal do sculo a solido

Em

F
G
Cada um de ns imerso em sua prpria
C
arrogncia
Em
G
Esperando por um pouco de afeio
C
Hoje no estava nada bem

Mas a tempestade me distrai


Gosto dos pingos de chuva
Dos relmpagos e dos troves
Dm
F
Hoje tarde foi um dia bom
C
Em
Am
Sa pr caminhar com meu pai
Dm
F
Conversamos sobre coisas da vida
C
E tivemos um momento de paz
de noite que tudo faz sentido
No silncio eu no ouo meus gritos
C
G
E o que disserem
Am
Em
F
G
C
Em
G
Meu pai sempre esteve esperando por mim
C
G
E o que disserem
Am
Em
F
G
C
Em
G

Minha me sempre esteve esperando por


mim
C
G
E o que disserem
Am
Em
F
G
C
Em
G
Meus verdadeiros amigos sempre
esperaram por mim
C
G
E o que disserem

Am
Em
F
G
C
Em
G
Agora meu filho espera por mim
C
G
Estamos vivendo
Am
Em
F
C
E o que disserem os nossos dias sero
para sempre.

C G Am Em F G C
Em

QUANDO VOC VOLTAR


Tom: G
Intr. G F C G F C
G
C
G
Vai, se voc precisa ir
D
Am
No quero mais brigar esta noite
C
Nossas acusaes infantis
G
C
E palavras mordazes que machucam tanto
G
C
No vo levar a nada, como sempre
G
D
C
Vai, clareia um pouco a cabea
Am
Bm C
D
G
J que vo..c no quer conversar.
Bm
C
D
G
J brigamos tanto mas no vale a pena
Bm

Vou ficar aqui, com um bom livro ou com


a TV
C
D
Sei que existe alguma coisa incomodando
voc
Bm
Em
C
Meu amor, cuidado na estrada
Am
Bm
C
E quando voc vol..tar
D
G
Tranque o porto
Bm
Feche as janelas
C
Apague a luz
D
C G
(Introduo)
E saiba que te amo

Viola do final.
E|-------------------12-10-12-10-12-10-|
B|-12-10-12-10-12-10-------------------|
G|-------------------------------------|
D|-------------------------------------|
A|-------------------------------------|
E|-------------------------------------|
O LIVRO DOS DIAS
Tom: D E
Intr. D Em F#m

Bm

Em

D
Ausente o encanto antes cultivado
Em
Percebo o mecanismo indiferente
F#m
Que teima em resgatar sem confiana
Bm
A essncia do delito ento sagrado
Em
Meu corao no quer deixar
Meu corpo descansar
A
E teu desejo inverso velho amigo
G
Intr.
J que o tenho sempre a meu lado

G
A
Hoje ento aceitas pelo nome
D
O que perfeito entregas mas tarde
C
S daria certo aos dois que tentam
Em
Se ainda embriagado pela fome
A
Exatos teu perdo e tua idade
G
Intr.
O indulto a ti tomasse como bno
E
No esconda tristeza em mim
F#m

Todos se afastam quando o mundo est


errado
G#m
Quando o que temos um catlogo de
erros
C#m
Quando precisamos de carinho
Fora e cuidado

F#m
Este o livro das flores
B
Este o livro do destino
A
Este o livro de nossos dias
E
Este o dia dos nossos amores

SETE CIDADES
Tom: C
Intr.: C Am F G
Guitarra: C
Am
F
G
E|---------|-----------------------------------------------------|
B|-1-------|------1----------------------------1-----------------|
G|----0----|----0---0--------0-0-----0-------0---0--------0-0----|
D|-------3-|-2-3-------3-2-3-----------3-2-3--------3-2-3-----0--|
A|---------|---------------------3-------------------------------|
E|---------|-----------------------------------------------------|
Durante a maior parte da msica.
Obs:Toda vez que for voltar do (G para o C) faa assim.
E|---------|
B|---------|
G|-0-------|
D|---3-2-3-|
A|---------|
E|---------|
Gaita:
E|-----------|
B|-----0--1--|
G|--0--------|
D|-----5--3--|
A|--3--------|
E|-----------|
C
Am
F
G
J me acostumei com a tua voz
C
Am
F G
C
Am
Com teu rosto e teu olhar, me partiu em dois
F
G
C Am
F
G
E procuro agora o que minha metade
Am
G
Quando no ests aqui
Am
G
Sinto falta de mim mesmo
Bb
Am
F G
E sinto falta do meu corpo junto ao teu
C Am
F G
Meu corao
C
Am
F
G
to tosco e to pobre
C
Am F G C
Am
F
G
No sabe ainda
os caminhos do mundo
Am
G
Quando no ests aqui
Am
G
Tenho medo de mim mesmo
Bb
Am
F G (C)
E sinto falta do teu corpo junto ao meu
G
F
C
Vem depressa pra mim que eu no sei esperar

F
Am
G
J fizemos promessas demais
C
F
C
Am
G
F G (C)
J me acostumei com a tua voz, quando estou contigo estou em paz
Am
G
Quando no ests aqui
Am
G
Meu esprito se perde
(Bb Am F G C)
Voa longe, longe, longe
ACRILIC ON CANVAS
Intro: (Dm Bb)
Baixo:
Dm
Bb
G|----------------------------------------------------------|
D|----------------------------------------------------------|
A|-5--5-----0-1--1--1---------------------------------------|
E|--------3------------1-------------------------------------|
Guitarra:
E|----------------------------------------------------------|
B|-11--10--11-11-10---11--10--11-13-10----------------------|
G|-12--12--12---------12--12--12----------------------------|
D|----------------------------------------------------------|
A|----------------------------------------------------------|
E|----------------------------------------------------------|
toque essa parte corda por corda(devagar)

INTRO

(Obs:Essa parte tocada durante toda a msica junto com os acordes "Dm Bb".
se vc ouvir a msica , vc perceber que ela no vai assim por toda a msica,
tem algumas variaes, mas da pra tocar s isso nessas partes que variam que fica
legal.)
(Dm Bb)
- saudade ento
E mais uma vez
De voc fiz o desenho mais perfeito que se fez:
Os traos copiei do que no aconteceu
As cores que escolhi entre as tintas que inventei
Misturei com a promessa que ns dois nunca fizemos
De um dia sermos trs
Trabalhei com voc em luz e sombra
riff 1
(Dm G Bb)
Eb
Cm
F
e|-----------------8---------------------------------------8--8--8-|
B|-8-8-6--8-6-8/10---10-10--8-8-6--8-6-6-------4-6-4-6-6-10-10-10--|
G|----------------------------------------8----5-5-5-5-5-----------|2x
D|-----------------------------------------------------------------|
A|-----------------------------------------------------------------|
E|-----------------------------------------------------------------|
riff 1
Dm G Bb
Era sempre:

Eb
-No foi por mal.
Cm
Eu juro que nunca

F
quis deixar voc to triste
Dm
G

Sempre as mesmas desculpas


Bb
Eb
E desculpas nem sempre
Cm
so sinceras
F
Quase nunca so
(Dm Bb)
Preparei a minha tela
Com pedaos de lenis
Que no chegamos a sujar
A armao fiz com madeira
Da janela do seu quarto
Do porto da sua casa
Fiz paleta e cavalete
E com lgrimas que no brincaram com voc
Destilei leo de linhaa
E da sua cama arranquei pedaos
Que talhei em estiletes de tamanhos diferentes
E fiz ento
Pincis com seus cabelos
Fiz carvo do batom
Que roubei de voc
E com ele marquei
Dois pontos de fuga
E rabisquei no horizonte
riff 1
(Dm G Bb)
Eb
Cm
F
e|-----------------8---------------------------------------8--8--8-|
B|-8-8-6--8-6-8/10---10-10--8-8-6--8-6-6-------4-6-4-6-6-10-10-10--|
G|----------------------------------------8----5-5-5-5-5-----------|2x
D|-----------------------------------------------------------------|
A|-----------------------------------------------------------------|
E|-----------------------------------------------------------------|
riff 1
Dm G Bb
Era sempre:
Eb
- No foi por mal.
Cm
Eu juro que no foi por mal.
F
Eu no queria machucar voc:
Prometo que isso nunca vai acontecer
Dm
G
Mais uma vez
Bb
E era sempre, sempre o
Eb
Cm
mesmo novamente
F
A mesma traio
(Dm Bb)
s vezes difcil esquecer:
- Sinto muito, ela no mora mais aqui.
Mas ento porque eu finjo
Que acredito no que invento?
Nada disso aconteceu assim
- No foi desse jeito
Ningum sofreu:
s voc que provoca
Essa saudade vazia

Tentando pintar essas flores com o nome


De "amor-perfeito"
E "no-te-esqueas-de-mim"
Guitarra do final:
E|--------------------------------|
B|-6/8-8--6/8-8------7/8-8--6-5-6-|
G|-7/9-9--7/9-9--9--6/9-9--7---7--| REPETIR AT O FINAL
D|--------------------------------|
A|--------------------------------|
E|--------------------------------|

TEATRO DOS VAMPIROS ACSTICO


Intr.: (I II III IV) 2x
I
II
E|-------------------------------|---------------------2-------|
B|---5-----3---1-2/3-----3-------|---5-----3---1-3---3---3-----|
G|-0---0-------------0-4---0-----|-0---0-----------2-------2---|
D|-------4---2---------------4-0-|-------4---2---------------3-|
A|-3-------------1/2-------------|-0-------------5-------------|
E|-------------------------------|-----------------------------|
III
IV
E|-------------------------------|-----------2---------3-----3-----|
B|---5-----3---1-2/3-----3-------|---5---------3---------3-----3---|
G|-0---0-------------0-4---0-----|-0---0-1/2-----2-3/4-----4-----4-|
D|-------4---2---------------4-0-|---------------------------------|
A|-3-------------1/2-------------|-0-------------------------------|
E|-------------------------------|---------------------------------|
C (x30053)
G6/B (x20030)
E|-------------3--------------------0-----|
B|---------5-----5--------------3-----3---|
G|-------0---0-----0----------0---0-----0-| repete
D|----------------------------------------|
3x
A|-3--------------------2-----------------|
E|----------------------------------------|
Gm7/Bb (x10031)
I
II
E|-----------1--------1-----1-----|---------------|-------------------------|
B|-------3-----3----------3---3---|-4/5-5-5-3-1-1-|-4/5-5-5-3-1-1-1-1-1-0---|
G|-----0---0-----0------0-------0-|---------------|-----------------------2-|
D|--------------------------------|-4/5-5-5-4-3-3-|-4/5-5-5-4-3-3-3-3-3-0---|
A|-1------------------1-----------|---------------|-----------------------0-|
E|--------------------------------|---------------|-------------------------|
Obs.: G (320033) / F (133211) / C (x32010)
ltima Parte:
E|-7-7-8-7-3-3-3-3-5-7-7-8-7-3-10-10-10-8-8-7-7-8-7-3-3-3-3-5-7-7-8-7-3B|-8-8-8-8-3-5-5-3-5-8-8-8-8-3--7--7--7-6-6-8-8-8-8-3-5-5-3-5-8-8-8-8-3G|-7-7-7-7-0-4-4-2-5-7-7-7-7-0--7--7--7-6-6-7-7-7-7-0-4-4-2-5-7-7-7-7-0D|-----------2-2----------------7--7--7-6-6-----------2-2--------------A|---------------------------------------------------------------------E|----------------------------------------------------------------------10-10-10-8-8-3-|
--7--7--7-6-6-3-|
--7--7--7-6-6-0-|
--7--7--7-6-6-0-|

--------------2-|
--------------3-|
Acordes:
(C G6/B)
Sempre precisei de um pouco de ateno
Acho que no sei quem sou
S sei do que no gosto
E destes dias to estranhos
(Gm7/Bb I)
Fica poeira se escondendo pelos cantos
(C G6/B)
Este o nosso mundo: o que demais nunca o bastante
E a primeira vez sempre a ltima chance.
(Gm7/Bb II)
Ningum v onde chegamos:
Os assassinos esto livres, ns no estamos
G
Vamos sair - mas no temos mais dinheiro
Os meus amigos todos esto procurando emprego
F
Voltamos a viver como h dez anos atrs
C
E a cada hora que passa
Envelhecemos dez semanas
G
Vamos l, tudo bem - eu s quero me divertir
Esquecer, dessa noite ter um lugar legal pra ir
F
J entregamos o alvo e a artilharia
C
Comparamos nossas vidas
E esperamos que um dia
G
Introduo
Nossas vidas possam se encontrar
Quando me vi tendo de viver comigo apenas
E com o mundo
Voc me veio como um sonho bom
E me assustei
No sou perfeito
Eu no esqueo
A riqueza que ns temos
Ningum consegue perceber
E de pensar nisso tudo,eu, homem feito
Tive medo e no consegui dormir.
Comparamos nossas vidas
E mesmo assim, no tenho pena de ningum.

ltima Parte

--------------------------------------- Legio Urbana - Teatro dos Vampiros --------------------------------------Tom: G


Intr.: G D Em Bm C G C D
Solo/intr.:
E|-----7--10--8--7--------------------------------------------------B|---8--------------10--8--8---7/m8-7-------------------------------G|--------------------------------------9-7-9-----------------------D|---------------------------7-----------------9/m-10-9-7-9-10-9-7--A|------------------------------------------------------------------E|-------------------------------------------------------------------

C
Bm
Sempre precisei de um pouco de ateno
C
Acho que no sei quem sou
Bm
S sei do que no gosto
C
Bm
E destes dias to estranhos
Bb
F C
Fica poeira se escondendo pelos cantos
C
Bm
C
Bm
Este o nosso mundo: o que demais nunca o bastante
C
Bm
E a primeira vez sempre a ltima chance.
Bb
Ningum v onde chegamos:
F
C
Os assassinos esto livres, ns no estamos
G
Vamos sair - mas no temos mais dinheiro
Os meus amigos todos esto procurando emprego
F
Voltamos a viver como h dez anos atrs
C/E
E a cada hora que passa
Envelhecemos dez semanas
G
Vamos l, tudo bem - eu s quero me divertir
Esquecer, dessa noite ter um lugar legal pra ir
F
J entregamos o alvo e a artilharia
C/E
Comparamos nossas vidas
E esperamos que um dia
G
Nossas vidas possam se encontrar
C
Bm
C
Quando me vi tendo de viver comigo apenas
Bm
E com o mundo
C
Bm
Voc me veio como um sonho bom
Bb
E me assustei
F
C
No sou perfeito
Eu no esqueo
Bm
A riqueza que ns temos
C
Bm
Ningum consegue perceber
C
Bm
Bb
E de pensar nisso tudo, eu, homem feito
F
C
Tive medo e no consegui dormir.
C/E
Comparamos nossas vidas
G
E mesmo assim, no tenho pena de ningum.

DUE (Raf/Testa/Cheope)
Tom: Eb

Intro: Bb

Cm

Dm

Eb

(2x)

Bb
Cm
Dm
Eb
Dove sei, e come stai
Bb
Cm
Dm
Eb
difficile, lo so lo sai
Bb
Fermo al rosso di un semaforo
Cm
Sei tu che cerco nella gente
Dm
A piedi, in taxi o dentro gli autobus
Eb
Due occhi che ti guardano e poi via
Bb
Cm
Come forti raffiche, perdersi nel traffico
Dm
Eb
E un claxon dopo l'altro chiss?!
Eb
Dm
Cm
Gm
Dove sei, come stai, cambier, se cambierai
Eb
Dm
due perch, siamo noi
Cm
Dm
Eb
F
due lottatori, due reduci, due
Eb
Dm
Gm
F
Canzoni d'amore comunque, io e te
Eb
Dm
Gm
Gm
Con le stesse parole seduti a un caff
Eb
F
Ab
Bb
E vorrei solo dirti ora che te ne vai
Cm
Dm
Eb
F
Eb
Gm
Eb
F
Se amore, amore vedrai di un amore vivrai
Bb
Cm
Dm
Eb
Ma stasera che cosa fai?!
Bb
Cm
Io che ti telefono, tu che non sei in casa
Dm
Eb
"Lasciate un messaggio", ma molto pi veloce il nastro di me
Bb
Cm
Che non so mai che dire, e allora prover ad uscire
Dm
Eb
Stasera io ti trovo lo so!
Eb
Dm
Cm
Gm
Dove sei, come stai, non ci sei, ma dove vai
Eb
Dm
Io sono qui, come te
Cm
Dm
Eb
F
Con questa paura di amare per due
Eb
Dm
Gm
F
Minuti, due ore o un'eternit
Eb
Dm
Gm
Gm
Duellanti nel mare di questa citt
Cm
Dm
Eb
F
Eb Dm Gm
Dove tutti han bisogno d'amore, proprio come noi due
Eb
Dm
Gm
Gm
Con le stesse parole seduti a un caff
Eb
F
Ab
Bb
E vorrei solo dirti ora che te ne vai
Cm
Dm
Eb
F
Eb Dm Cm Gm
Se amore, amore vedrai di un amore vivrai
Eb
Dm
Cm
Gm
Dove sei, come stai, due anche se, non ci sei
Eb
Dm
Cm
Gm

Io e te, sempre o mai, siamo noi, siamo in due

On The Way Home/Rise

Legio Urbana
(Neil Young e John Lydon/ Nill Laswell)
Verso: Legio Urbana Acstico MTV
Tom: G
Introduo.: G

C (Renato Russo)

Riff 1 Dado Villa-Lobos I


II
E|-12-12-12-10-10-10-10--0--8--0--8-7-7-7-|-12-12-12-10-10-10-10--8--8--8-7-0-7-|
B|-13-13-13-12-12-12-12-10-10-10-10-8-8-8-|-13-13-13-12-12-12-12-10-10-10-8-0-8-|
G|-12-12-12-12-12-12-12-10-10-10-10-7-7-7-|-12-12-12-12-12-12-12-10-10-10-7-0-7-|
D|----------------------------------------|-------------------------------------|
A|----------------------------------------|-------------------------------------|
E|----------------------------------------|-------------------------------------|
Durante a msica
Riff 2
Riff 3
|---------------||--------------------|
|---------------||-------5-----8----8-|
|---------------||--------------------|
|---8p7-5-8p7-5-||-3-3/5---5/7-7/9---|
|-5-------------||--------------------|
|---------------||--------------------|
G

When the dream came


C

(C

G) Riff 2

I held my breath with my eyes closed


I went insane,
C

Like a smoke ring day


G
- II
When the wind blows
C

Now I won't be back till later on


C
G - Riff 3
If I do come back at all
F

Bb

But you know me, and I miss you now.


Renato Russo : G C G C
Dado Villa-Lobos : Riff 1
G

In a strange game
C

I saw myself as you knew me


When the change came,
C

And you had a


G

Chance to see through me


C

Though the other side is just the same


C
Am D - Riff 3
You can tell my dream is real
F

Because I love you,

Bb

Renato Russo : G C G C
Dado Villa-Lobos : Riff 1
C

can you see me now.

Though we rush ahead to save our time


C

Am

We are only what we feel


F

Bb

And I love you,

can you feel it now...Oyeah

Renato Russo : G C G C
Dado Villa-Lobos : Riff 1
Rise
Solo 1 Dado Villa-Lobos
E|-----10----|
B|---8-------|
G|-7---------|
D|-----------|
A|-----------|
E|-----------|

Renato Russo (G C9 D)

___
:
I could be wrong, I could be right
: Solo 1
G
C9
D
G C9 D
:
I could be wrong, I could be right
___:
G

C9

C9 D

Solo 2 Dado Villa-Lobos


E|-7--9-9-9-7-9-9-9-9-7-|
B|-9--9-9-9-9-9-9-9-9-9-|
G|-8--8-8-8-8-8-8-8-8-8-|
D|----------------------|
A|----------------------|
E|----------------------|

Solo 3 (D G)
|--10--|--7--|
|--10--|--8--|
|--11--|--7--|
|------|-----|
|------|-----|
|------|-----|
___
G
C9
:
I could be wrong, I could be right
:
D
G
:
I could be black, I could be white
:
G
C9
:
I could be right, I could be wrong
:
D
G
:
I could be white, I could be Black
: Solo 2
C9
:
Your time has come, your second skin
:
D
G
:
The cost so high the gain so low
:
C9
:
Walk through the valley
:
D
G
:
The written work is a li
___:
D
G
___
May the road rise with you 4x ___: Solo 3
Solo 1 (G C9 D)
___
:
I could be wrong, I could be right
: Solo 1
G
C9
D
G C9 D
:
I could be wrong, I could be right
___:
G

C9

C9 D

C9

Your time has come, your second skin


D

The cost so high the gain so low


C9

Walk through the valley


D

___

:
:
:
: Solo 2
:
:

The written work is a li

___:

___
May the road rise with you 4x ___: Solo 3
D

Solo 4 (E Bm)
E|-4---|--7--|4
B|-5---|--7--|v
G|-4---|--7--|e
D|-----|-----|z
A|-----|-----|e
E|-----|-----|s
Bm
___
Anger is an energy
:
E
Bm
:
Anger is an energy
:
E
Bm
: Solo 4
Anger is an energy
:
E
Bm
:
Anger is an energy___:
E

Renato Russo
Dado Villa-Lobos
E|-3-x-x-x-x-3-|---10-----------------------------|
B|-3-x-x-x-x-3-|--8-----------3-----0-------------|
G|-0-x-x-x-x-0-|-7--------------------1h2p1-1---0-|
D|-0-x-x-x-x-0-|----------2-2---2-2-----------2---|
A|-2-x-x-x-x-2-|----------------------------------|
E|-3-x-x-x-x-3-|----------------------------------|
Renato Russo:G C9 D G C9 D G

Dado Villa-Lobos: Solo 1

The Last Time Saw Richard

Legio Urbana
Tom: G
Introduo: G

RIFF 1
Am G/B

e|--------------------------|-3-3-3-3-----2-2-2--2------|
B|-----3-----3---3-x-x-x----|-3-3-3-3-----3-3-3--3------|
G|-----0-----0---0-x-x-x----|-0-0-0-0-----0-0-0--0------|
D|-----0-x-x-0-x-0-x-x-x-...|-0-0-0-0-2x--0-0-0--0-...--|
A|-------x-x---x---x-x-x----|-0-0-0-0-----0-0-0--0------|
E|-3-3---x-x---x---x-x-x----|-3-3-3-3-----3-3-3--3------|
G

|-----|
|-----|
|-----|
|-----|
|-0-2-|
|-----|

Am

Last time I saw richard was Detroit in 68 / And told me


all romantics meet the same fate / Some day, cynical and drunk and
G

boring someone / In some dark caf / You laugh, he said you


Am

think you're immune, / Go look at eyes / They're fool of moon /

You like roses and kisses and pretty men to tell you / All those pretty
C/G

lies, pretty lies / When you gonna realize they're only pretty lies /
G
Am
D (RIFF 1) C G/B D G
Only pretty lies, pretty lies /
He put a quarter in the
Am

wurlitzer, and he pushed / Three button sand the thing began to whirl /
And a barmaid came by a fishnet stockings and a bow tie / And she
G

said drink up now it's getting on time to close / Richard, haven't


Am

really changed, I said / Is she that now will romantic sizing some pain
that's see in head / You've got tombs in your in eye, but the songs / You
G

C/G

punched are dreaming / Listen, they talk of love so sweet / When you
F

gonna get yourself back on your feet? / Oh and love can be so


Am
D
(RIFF 1) C G/B D G
sweet, love so sweet /
Richard got married to a figure
Am

skater / And he bought her a dish was her and a coffe percolator /
And he drinks at home now most night with the TV on / And all the
G

house lights left up bright / I'm gonna blow this dam candle out / I
Am

don't want nobody, comin'over to my table / I go nothing to talk to


anybody about / All good dreamer pass this away someday / Hidin'
G

C/G

behind bottles in dark caf / Dark cafes / Only a dark coccon before
F

Am

I get my gorgeous wings / And fly away / Only a phase, these dark
D
(RIFF 1) C G/B Am Em
cafe days

Interesses relacionados