Você está na página 1de 173

APRENDA VIOLA CAIPIRA

REPERTRIO DE 64 MSICAS
MATERIAL UTILIZADO NA:
ORQUESTRA DE VIOLA
CAIPIRA DE ARTHUR
NOGUEIRA
E
ORQUESTRA DE VIOLA
CAIPIRA DE COMPOLIS
PROF. CRISTIANO
SCUCIATTO
(19) 9105-9159
http://aprendaviolacaipira.blogspot.com.br/
cristianomusicas31@gmail.com
1 Edio Maro 2013 reviso Abril 2013
1
Aprenda Viola Caipira - Violeiro Cristiano Scuciatto - Material Desenvolvido para fins didticos

NDICE
Aprenda Viola Caipira ndice
1 Capa
2 ndice
3 Acordes
04 REPERTRIO DE CURURUS (11)
05 Rio de Lgrimas
07 Vida Marvada
09 Canoeiro
11 Menino da Porteira
13 Menino da Porteira Instrumental
15 Pescador e Catieiro
17 Relgio Quebrado
19 Relgio Quebrado Instrumental
21 A Fora do Perdo
23 Ana Rosa
25 Comitiva Esperana
27 A Vaca foi para o Brejo
25 Peito Sadio
29 Campo Harmnico D - Sol - R
30 Escala de L
30 REPERTRIO DE GUARNIAS (18)
31 Chalana
33 Um Violeiro Toca
35 Mala Amarela
37 Cabecinha no Ombro
38 Amargurado
39 Sem Voc
41 Ainda Ontem Chorei de Saudade
43 Saudades da Minha Terra
45 60 Dias Apaixonado
47 Tocando em Frente
49 Telefone Mudo Boate Azul
51 Trem do Pantanal
53 Amanheceu Peguei a viola
55 Escolta de Vaga Lumes
57 ndia
59 Jeito de Mato
61 Noite Feliz

63 REPERTRIO DE QUERUMANAS
(3)
63 Franguinho na Panela
65 Prato do dia
67 Meu Reino Encantado
69 Meu Reino Encantado Solo
REPERTRIO DE TOADAS (10)
70 Cabocla Teresa (Solo)
71 Cabocla Teresa
73 Chico Mineiro
75 Inhambu Xint
77 Joo de Barro
79 Filho Adotivo
81 Cio da Terra
83 Boiadeiro Errante
87 Sete Palavras
89 A Caneta e a Enxada
91 Couro de Boi
93 REPERTRIO DE CATERETS (8)
93 Porta do Mundo
95 Caminheiro
97 Avenida Boiadeira
99 Cuitelinho
101 Cuitelinho
103 Saco de Ouro
105 Tristeza do Jeca - Sol
107 Tristeza do Jeca - R
109 A mo do Tempo
111 Pai Joo

117 REPERTRIO DE PAGODES


CAIPIRA (16)
119 Pagode em Braslia
121 Nove e Nove
123 A Coisa t Feia
125 Pagode do Ala
128 Chora me Liga
131 Bandeira Branca
129 Pagode na Praa
135 Brincando com a Viola
(Bambico)
137 Baiano no coco
139 Tudo Serve
141 Faca que nao corta
143 Rei sem Coroa
145 Rancho dos Ipes
147 Sete Flechas
149 Tudo Certo
151 Empreitada Perigosa
PAGODE NORDESTINO (2)
153 Chora Viola
155 Asa Branca
157 RANCHEIRA (1)
157 Estrada da Vida
159 MODA DE VIOLA (1)
159 Rei do Gado
161 CANA VERDE
163 Moreninha Linda
165 Baile na roa

2
Aprenda Viola Caipira - Violeiro Cristiano Scuciatto - Material Desenvolvido para fins didticos

Prof. Cristiano Scuciatto (19) 9105-9159


http://aprendaviolacaipira.blogspot.com.br/
cristianomusicas31@gmail.com

udio para Estudo


https://docs.google.com/open?id=0B1d8Y_cipcXiZDg5SVh2NG9VM1E
udio para Estudo + Rpido
https://docs.google.com/open?id=0B1d8Y_cipcXiMmZfU09OZmx4a3M

3
Aprenda Viola Caipira - Violeiro Cristiano Scuciatto - Material Desenvolvido para fins didticos

A Msica a arte de manifestar os diversos


afetos de nossa alma mediante o som.
(Paschoal Bona)

REPERTRIO DE CURURUS

4
Aprenda Viola Caipira - Violeiro Cristiano Scuciatto - Material Desenvolvido para fins didticos

Rio de Lgrimas
Tio Carreiro, Piraci e Lourival dos Santos

D
O rio de Piracicaba

A7
D
Vai jogar gua pr fora
A7
D
Quando chegar a gua Dos olhos de algum que chora
A7
D
Quando chegar a gua Dos olhos de algum que chora
A7
D
L no bairro onde eu moro S existe uma nascente
A7
D
A nascente dos meus olhos J brotou gua corrente
D7
G
D
Pertinho da minha casa J formou uma lagoa
A7
D
Com lgrimas dos meus olhos Por causa de uma pessoa
A7
D
Eu quero apanhar uma rosa Minha mo j no alcana
A7
D
Eu choro desesperado Igualzinho a uma criana
D7
G
D
Duvido algum que no chore Pela dor de uma saudade
A7
D
Quero ver quem que no chora Quando ama de verdade

5
Aprenda Viola Caipira - Violeiro Cristiano Scuciatto - Material Desenvolvido para fins didticos

Rio de Lgrimas
1|----------------------------------|7-9-7-5-4-7-5-2-5-7-5-4-2-5
2|4\9--7-5-4-2-0--------------------|--------------------------3|3\8--7-5-3-1-0-0-1\7---5-3-1-0-0-0|7-8-7-5-3-7-5-1-5-7-5-3-1-5
4|---------------0-2\7---5-4-2-0-0-0|--------------------------5|----------------------------------|---------------------------

1|4-0-4-5-4-2-0-4-2-----2-4-2-0-----2-0-0-10-10-10-10-10-9--12-12
2|-------------------4-----------4--------12-12-12-12-12-10-14-14
3|3-0-3-5-3-1-0-3-1-----1-3-1-0-----1-0-0-----------------------4|-------------------2-----------2------------------------------5|---------------------------------------------------------------

1|9--9--9--9--9--7-12-7-12-11--9--7-9--11-11-7\11--9-7-5-4-4|
2|10-10-10-10-10-9-9--9-14-12--10-9-10-12-12-9\1210-9-7-5-5|4
3|----------------------------------------------------------|3
4|----------------------------------------------------------|
5|----------------------------------------------------------|

Para terminar...
Harm
1|-------------------------12---------|
2|-------------------------12---------|
3|----7----5-3-1-0--1--0---12---------|
4|----7----5-4-2-0--2--0---12---------|
5|-------------------------12---------|

Prof. Cristiano Scuciatto


(19) 9105-9159
cristianomusicas31@gmail.com
http://cristianomusicas.blogspot.com/

6
Aprenda Viola Caipira - Violeiro Cristiano Scuciatto - Material Desenvolvido para fins didticos

Vide Vida Marvada Rolando Boldrin


Tom: G Introduo: D7 Cebolo R
D7
Corre um boato aqui donde eu moro
Que as mgoas que eu choro so mal ponteadas
Que no capim mascado do meu boi
A baba sempre foi santa e purificada
Diz que eu rumino desde menininho
Fraco e mirradinho a rao da estrada
Vou mastigando o mundo e ruminando
E assim vou tocando essa vida marvada
G
D7
que a viola fala alto no meu peito humano
G
E toda moda um remdio pros meus desenganos
D7
que a viola fala alto no meu peito, mano
G
E toda mgoa um mistrio fora desse plano
G7
C
Pra todo aquele que s fala que eu no sei viver
Chega l em casa pruma visitinha
G
Que no verso e no reverso da vida inteirinha
D7
G
D7
G
H de encontrar-me no cateret H de encontrar-me no cateret
D7
Tem um ditado dito como certo
Que cavalo esperto no espanta a boiada
E quem refuga o mundo resmungando
Passar berrando essa vida marvada
Cumpadi meu que inveieceu cantando
Diz que ruminando d pra ser feliz
Por isso eu vagueio ponteando
E assim procurando minha flor-de-liz
7
Aprenda Viola Caipira - Violeiro Cristiano Scuciatto - Material Desenvolvido para fins didticos

Prof. Cristiano Scuciatto


(19) 9105-9159
http://aprendaviolacaipira.blogspot.com.br/
cristianomusicas31@gmail.com

Vide Vida Marvada Rolando Boldrin


1|----4-7-10-9-7-10-9-7-10----4-7-10-9-7-10-9-7-12----2|-5-----------------------5--------------------------3|----------------------------------------------------4|----------------------------------------------------5|-----------------------------------------------------

1|----4-7-10-9-7-10-9-7-12-10-10-10-9-9-9-7-7-5-4-4---2|-5--------------------------------------------------3|----------------------------------------------------4|----------------------------------------------------5|-----------------------------------------------------

8
Aprenda Viola Caipira - Violeiro Cristiano Scuciatto - Material Desenvolvido para fins didticos

Canoeiro Carreirinho Compositor: Z Carreiro


Tom: D (Intro) D \ D \ A7 \ A7 \ D \ D \ A7 \ A7 \ D \ A7
A7
Domingo de tardezinha, eu estava mesmo toa.
Convidei meu companheiro pra ir pescar na lagoa
A7
Levemos a rede de lance,
D
Ai, ai, vamos pescar de canoa. (Introduo)
A7
Eu levei meus apreparo pra d uma pescada boa
Samos cortando gua na minha velha canoa
A gara avistei de longe,
D
Ai, ai, chega perto ela voa. (Introduo)
A7
Fui descendo rio abaixo remando minha canoa
Eu entrei numa vazante fui sa noutra lagoa
o remanso do Rio Pardo
D
Ai, ai, aonde o pintado amoa. (Introduo)
A7
Pra peg peixe dos bo, d trabalho a gente soa.
Eu jogo o timb na gua, com isso o peixe atordoa.
Jogo a rede e dou um grito,
D
Ai, ai, o dourado amontoa. (Introduo)
A7
O rio tava enchendo muito, tava cobrindo a taboa.
Acompanhei a mar, encostei minha canoa.
Cada remada que eu dava,
D
Ai, ai dava um balano na proa. (Introduo)

9
Aprenda Viola Caipira - Violeiro Cristiano Scuciatto - Material Desenvolvido para fins didticos

Prof. Cristiano Scuciatto


(19) 9105-9159 cristianomusicas31@gmail.com
http://cristianomusicas.blogspot.com/

Canoeiro Carreirinho
1|7-7-7-7-7-7-7-7-6-5-4-2-0------|------------------0-2-4-7-7-7-5-5-5
2|--------------------------4-2-0|0-2-0-0-2-00-2-4-----------------3|-------------------------------|----------------------------------4|-------------------------------|----------------------------------5|-------------------------------|-----------------------------------

1|4-4-4-2-2-0-0-0|2-4-5-7-5-4-5-5-2-4-5-7-5-4-5-5-2-4-5-11-11-11
2|---------------|4-5-7-9-7-5-7-7-4-5-7-9-7-5-7-7-4-5-7-12-12-12
3|---------------|---------------------------------------------4|---------------|---------------------------------------------5|---------------|----------------------------------------------

1|-12-11-9--7-5-4-2-0--2-----2-4-5-4-2-0---2---2-----------|
2|-14-12-10-9-7-5-4-2-4-----4-5-7-5-4-2---4---4-----------|
3|---------------------------------------------------------|
4|---------------------------------------------------------|
5|---------------------------------------------------------|
1|-11--11--5--7--9--11-11-11--7--4-----------------|
2|-12--12--7--9-10--12-12-12--9--5-----------------|
3|-------------------------------------------------|
4|-------------------------------------------------|
5|-------------------------------------------------|

10
Aprenda Viola Caipira - Violeiro Cristiano Scuciatto - Material Desenvolvido para fins didticos

Menino da porteira - Teddy Vieira e Luizinho


Introduo (D G D G D G D G D G)
G
D
Toda vez que eu viajava Pela estrada de Ouro Fino
G
De longe eu avistava A figura de um menino
D
Que corria abrir a porteira Depois vinha me pedindo
C D
G
Toque o berrante seu moo Que pra eu ficar ouvindo
C
D
Quando a boiada passava E a poeira ia baixando
G
Eu jogava uma moeda Ele saia pulando
D
Obrigado boiadeiro Que Deus v lhe acompanhando
C D G
Pra aquele serto afora Meu berrante ia tocando

Introduo (D G D G D G D G D G)
G
D
No caminho desta vida Muito espinho eu encontrei
G
Mas nenhum caso mais fundo Do que isso que eu passei
D
Na minha viagem de volta Qualquer coisa eu cismei
C
D
G
Vendo a porteira fechada O menino no avistei
C
D
Apeei do meu cavalo Num ranchinho beira cho
G
Vi uma mulher chorando Quis saber qual a razo
D
Boiadeiro veio tarde Veja a cruz no estrado
C
D G
Quem matou o meu filhinho Foi um boi sem corao
Introduo (D G D G D G D G D G)
11
Aprenda Viola Caipira - Violeiro Cristiano Scuciatto - Material Desenvolvido para fins didticos

G
D
L pra banda de Ouro Fino Levando gado selvagem
G
Quando passo na porteira At vejo a sua imagem
D
O seu rangido to triste Mais parece uma mensagem
C
D
G
Daquele rosto trigueiro desejando-me boa viagem
C
D
A cruzinha do estrado do pensamento no sai
G
Eu j fiz um juramento Que no esqueo jamais
D
Nem que o meu gado estoure Que eu precise ir atrs
C
D
G
Nesse pedao de cho Berrante eu no toco mais
(D G D G D G D G D G)
O Menino da Porteira (cano) Lanamento 1955
Gnero: Cururu, Msica sertaneja
O Menino da Porteira um Cururu da autoria de Teddy Vieira e Luizinho (da dupla Luizinho &
Limeira), um clssico da msica sertaneja. Foi gravada originalmente em 1955 por Luizinho &
Limeira. Dois filmes foram feitos com o ttulo "O Menino da Porteira". O primeiro estrelado por
Srgio Reis em 1976 e o segundo pelo cantor Daniel em 2009.
Gravaes
Luizinho & Limeira (1955) - Tonico & Tinoco (1956) - Srgio Reis (1973) - Tio Carreiro e
Pardinho (1976) - Daniel (2009)
Prof. Cristiano Scuciatto (19) 9105-9159 cristianomusicas31@gmail.com
http://aprendaviolacaipira.blogspot.com.br/

12
Aprenda Viola Caipira - Violeiro Cristiano Scuciatto - Material Desenvolvido para fins didticos

Menino da Porteira (tablatura) Viola Caipira


Introduo
1|10-10-10--9-|-0---0---0---2---4---2---0-------------------|
2|12-12-12--10|-2---2---2---3---5---3---2-3-2---2---3-(2x)|
3|------------|----------------------------3--1---1---3-----|
4|------------|---------------------------------------------|
5|------------|---------------------------------------------|
1|-9--9------9----9----------9-------7----9------9-----|
2|10--10-----10---10---------10------9----10----10-----|
3|-----------------------------------------------------|
4|-----------------------------------------------------|
5|-----------------------------------------------------|
To
da
vez que eu
vi
a
j
va
1|10--10------12--12------9-----9------7----7-|
2|12--12------14--14------10----10-----9----9-|
3|--------------------------------------------|
4|--------------------------------------------|
5|--------------------------------------------|
Pe
la
es trada deOu
ro
Fi
no
1|4----4----4--4-4--2---4---4---5--5---7--10---10----9---9----9-|
2|5----5----5-5--5--3---5---5---7--7---9--12---12----10--10---10|
3|---------------------------------------------------------------|
4|---------------------------------------------------------------|
5|---------------------------------------------------------------|
De
lon ge eu a vis ta va A fi gu ra
deum me ni
no

1|9----9----9--9----9--------7----9-----9---|
2|10---10---10-10---10-------9----10----10--|
3|------------------------------------------|
4|------------------------------------------|
5|------------------------------------------|
Que cor ri a
abrir a por tei
ra
1|10----10----12---12----9-----9------7-----7-|
2|12----12----14---14----10----10-----9-----9-|
3|--------------------------------------------|
4|--------------------------------------------|
5|--------------------------------------------|
De
pois
vi
nha
me
pe
din
do
13
Aprenda Viola Caipira - Violeiro Cristiano Scuciatto - Material Desenvolvido para fins didticos

1|4---4------4----4----4----2--4--4----0----0----2---2---0---------------|
2|5---5------5----5----5----3--5--5----2----2----3---3---2----3----2----2|
3|------------------------------------------------------------3----1----1|
4|-----------------------------------------------------------------------|
5|-----------------------------------------------------------------------|
To que o ber ran te seu mo o Que pra eu fi car ou vin
do
1|2----2----2----2----2---0----2---2---2---0----2-----5---5----4----4-----4-|
2|3----3----3----3----3---2----3---3---3---2----3-----7---7----5----5-----5-|
3|--------------------------------------------------------------------------|
4|--------------------------------------------------------------------------|
5|--------------------------------------------------------------------------|
Quando a
boi
a
da pas sa va E a poeira
i
a
bai xan do

1|4---4---4--4----4---2---4--4---5---5----7----10---10---9----9---9-|
2|5---5---5--5----5---3---5--5---7---7----9----12---12---10---10-10|
3|------------------------------------------------------------------|
4|------------------------------------------------------------------|
5|------------------------------------------------------------------|
Eu jo ga va uma mo e da e
le
sa
i
a
pu
lan do
1|9---9---9----9---9----7---9----9--10---10---12---12----9---9----7----7|
2|1010---10---10--10---9---10---10-12---12---14---14----10--10---9----9|
3|----------------------------------------------------------------------|
4|----------------------------------------------------------------------|
5|----------------------------------------------------------------------|
O bri ga
do boi a
dei ro Que Deus v lhe a com pa nhan do
1|4---4----4----4----4----2--4---4---0---0----2----2---0-----------------|
2|5---5----5----5----5----3--5---5---2---2----3----3---2----3----2-----2-|
3|----------------------------------------------------------3----1-----1-|
4|-----------------------------------------------------------------------|
5|-----------------------------------------------------------------------|
Pra aque le
ser to
a fo ra Meu ber ran te ia
to
can
do

Prof. Cristiano Scuciatto (19) 9105-9159


cristianomusicas31@gmail.com
http://aprendaviolacaipira.blogspot.com.br/

14
Aprenda Viola Caipira - Violeiro Cristiano Scuciatto - Material Desenvolvido para fins didticos

Pescador e Catireiro Daniel


Tom D - Cebolo R
Prof. Cristiano Scuciatto (19) 9105-9159 cristianomusicas31@gmail.com
http://aprendaviolacaipira.blogspot.com.br/

A7
1|2-4-5-5-5-5-5--4-2--2-2-2-2--4-5-5--5-5-5-4-2-------------------2|4-5-7-7-7-7-7--5-4--4-4-4-4--5-7-7--7-7-7-5-4-------------------3|----------------------------------------------------------------4|-----------------------------------------------------0----------5|-----------------------------------------------0-2-4----4-2-4-2-0
A7
G
A7
A
D
1|2-4-5-5-5-5-5-7-|-9--9---9--9--9--7-|11-11-9--11-11-|12-11-12--7|
2|4-5-7-7-7-7-7-9-|10-10--10-10-10--9-|12-12-10-12-12-|-9-12--9--7|
3|----------------|-------------------|---------------|----------7|
4|----------------|-------------------|---------------|----------7|
5|----------------|-------------------|---------------|----------7|

D
Comprei uma mata virgem do coronel bento lira,
G
Fiz um rancho de barrote, amarrei com cip cambira,
A7
Fiz na beira da lagoa s para pescar trara
D
D7
G
Eu no me incomodo que me chamam de caipira,
A7
D
A7
D
No lugar que ndio canta muita gente admira.

(F# G Ab A)

(F# G Ab A)

(intro)
D
Canoa fiz de paineira, varejo de guaiuvira,
G
A Poita pesa uma arroba, dois remos de sucupira
A7
Se jogo a tarrafa na gua sozinho um homem no tira.
D
D7
G
Capivara bicho arisco quando cai na minha mira.
A7
D
A7
D
Puxo o arco e jogo a flecha, l no barranco revira
(intro)
15
Aprenda Viola Caipira - Violeiro Cristiano Scuciatto - Material Desenvolvido para fins didticos

(F# G Ab A)

(F# G Ab A)

D
Eu sou grande pescador, tambm gosto de catira,
G
(F# G Ab A)
Quando eu entro num pagode no tem quem no se admira
A7
No repique da viola contente o povo delira
D
D7
G
( F# G Ab A)
Se a tristeza est na festa eu chego, ela se retira,
A7
D
A7
D
Bato palma e bato o p at as moas suspiram
(intro)
D
Muita gente no conhece o cantar da curruira,
G
Nem sabe o gosto que tem a pinga com sucupira,
A7
Morando l na cidade no se come cambuquira.
D
D7
G
por isso que eu gosto do sistema do caipira,
A7
D
A7
D
A7 D
Pode at ficar de fogo, ele no conta mentira.

( F# G Ab A)

(F# G Ab A)

16
Aprenda Viola Caipira - Violeiro Cristiano Scuciatto - Material Desenvolvido para fins didticos

Relgio Quebrado Nestor e Nestorzinho


Tom: Sol Cebolo R (Teddy Vieira - Jos Russo)

G
D7
VOU CONTAR UMA PASSAGEM NA VIDA DE DOIS IRMOS
G
QUE VIVIA DISCUTINDO A RESPEITO A RELIGIO
D7
JOS QUE ERA MAIS VELHO TINHA SUA DEVOO
C
G
D7
G
NA HORA DELE DEITAR FAZIA SUAS ORAO
G
D7
O SEU IRMO DURVALINO FALAVA DANDO RISADA:
G
DEIXE DE FALAR SOZINHO ISSO NO LHE ADIANTA NADA
D7
MELHOR VOC DORMIR PRA ACORDAR DE MADRUGADA
C
G
D7
G
EU NO VOU PERDER O SONO PRA ESCUTAR CONVERSA AFIADA.
G
D7
SE VOC NO ACREDITA NO LHE OBRIGO A ACREDITAR
G
MAS QUE EXISTE OUTRO MUNDO PRA VOC QUERO PROVAR
D7
SE UM DIA MORRER PRIMEIRO E MINHA ALMA SE SALVAR
C
G
D7
G
VOU FAZER UMA SURPRESA QUE VOC NO VAI GOSTAR.
G
D7
UM DIA JOS FOI EMBORA E PRO SEU IRMO FALOU:
G
FIQUE COM ESSE RELGIO LEMBRANA DO NOSSO AV
D7
E NUNCA MAIS SE ENCONTRARAM E OS ANOS SE PASSOU
C
G
D7
G
O RELGIO DESMANCHADO NA PAREDE ALI FICOU.
17
Aprenda Viola Caipira - Violeiro Cristiano Scuciatto - Material Desenvolvido para fins didticos

G
D7
CERTA NOITE O DURVALINO ACORDOU MUITO ASSUSTADO
G
OUVINDO AQUELAS BATIDAS DEVAGAR BEM COMPASSADO
D7
CONTOU DOZE BADALADAS SEU CORPO FICOU ARREPIADO
C
G
D7
G
MEIA NOITE QUE MARCAVA NO SEU RELGIO QUEBRADO.
G
D7
PASSOU A NOITE NERVOSO COM O QUE LHE ACONTECEU
G
NO OUTRO DIA CEDINHO UM TELEGRAMA RECEBEU
D7
ABRIU PRA VER O QUE ERA SEU CORPO ESTREMECEU
C
G
D7
G
DIZIA QUE A MEIA NOITE O SEU IRMO JOS MORREU.

Prof. Cristiano Scuciatto (19) 9105-9159


http://aprendaviolacaipira.blogspot.com.br/
cristianomusicas31@gmail.com
18
Aprenda Viola Caipira - Violeiro Cristiano Scuciatto - Material Desenvolvido para fins didticos

Relgio Quebrado Nestor e Nestorzinho Solo


P
p m i
p p m i p m i
p p m i
1|--------5----------5------5-----------5----|
2|-----------0---------0-------0-----------0-|
3|-----5---------5-5------5---------5-5------|
4|--0----------------------------------------|
5|-------------------------------------------|p m i
p p m i p m i
p p m i
1|--------4----------2------0-----------0----|
2|-----------0---------0-------0-----------0-|
3|-----3---------1-1------0--------0-0-------|
4|-------------------------------------------|
5|-------------------------------------------|
p m i
p p m i p m i
p p m i
|--------7----------7------7-----------7----|
|-----------0---------0-------0-----------0-|
|-----6---------6-6------6--------6-6-------|
|-------------------------------------------|
|-------------------------------------------|
p m i
p p m i p m i
p p m i
|--------9----------7------5-----------5----|
|-----------0---------0-------0-----------0-|
|-----8---------6-6------5--------5-5-------|
|-------------------------------------------|
|-------------------------------------------|
|--------5----------5------5-----------5----|
|-----------0---------0-------0-----------0-|
|-----5---------5-5------5---------5-5------|
|-------------------------------------------|
|-------------------------------------------|p m i
p p m i p m i
p p m i
|--------4----------2------0-----------0----|
|-----------0---------0-------0-----------0-|
|-----3---------1-1------0--------0-0-------|
|-------------------------------------------|
|-------------------------------------------|
P
m i
p p
m i p m
i
p p
m i
|-----10------------10------9-------------9---|
|--------0-------------0--------0------------0|
|--10---------10-10-------8---------8-8-------|
|---------------------------------------------|
|---------------------------------------------|
p m i
p p m i
|-----7----------7-----5--14-12---10---9---5---|
|--------0---------0---------------------------|
|--6---------6-6-------5--13-12---10---8---5---|
|-------------------------------0----0---0---0-|
|----------------------------------------------|
|------9---7------5---|
|---------------------|
|------8---6------5---|
|--------0---0--------|
|---------------------|

19
Aprenda Viola Caipira - Violeiro Cristiano Scuciatto - Material Desenvolvido para fins didticos

A Fora Do Perdo Tio Carreiro e Pardinho


Autor: Tio Carreiro e Ari Guardio

Introduo: F C F C
F
Quando escuto algum contando mais um caso de assaltante
C
Lembro um fato h muito tempo me recordo neste instante
Bb
F
Pobre me banhada em prantos numa cena emocionante
C
F
(F C F C)
Pede ao mdico que salve o seu filho agonizante.
F-------------------------------------------------------------------------------O doutor um dia antes tinha sido assaltado
C
Em legtima defesa lutou to desesperado
Bb
F
O ladro com a prpria arma acabou sendo baleado
C
F
(F C F C)
O doutor saiu com vida, porm muito machucado.
F----------------------------------------------------------------------------------Mas o mdico bondoso sem medir dificuldade
C
Foi prestar o seu socorro por dever de humanidade
Bb
F
Pela estrada lamacenta to distante da cidade
C
F
(F C F C)
Parecia at loucura enfrentar a tempestade.
F-------------------------------------------------------------------------------Viu no rancho com surpresa que o ferido era o ladro
C
Mas curou o assaltante que fez essa confisso
Bb
F
Ao doutor de corpo e alma devo a minha salvao
C
F
(F C F C)
Mais forte do que o dio fora do perdo.

20
Aprenda Viola Caipira - Violeiro Cristiano Scuciatto - Material Desenvolvido para fins didticos

Ana Rosa Tio Carreiro e Pardinho (D +)


Compositor: Carreirinho
Tom: C (intro) G7 C G7 C

C--------------------------------G------------------------------------C----------------------------------Ana Rosa casou com Chicuta uma caipira bastante atrasado


F
G
C
Levava a vida de carreiro fazendo transporte era o seu ordenado
G
C
Tinha um cime doentio pela moa que dava pena do coitado
F
G
C F
G C
Batia na pobre mulher com a vara de ferro de bater no gado, ai.
C--------------------------------G------------------------------------C----------------------------------Resolveu abandonar o marido porque a vida j no resistia
F
G
C
Quando chegou em Botucatu aquela cidade toda dormia
G
C
S encontrou uma porta aberta, mas ali no entrava famlia
F
G
C F
G C
Resolveu contar sua histria e se abrigar at no outro di...a.
C-----------------------------------------G-------------------------------C----------------------------O Chicuta quando chegou em casa Ana Rosa no encontrou
F
G
C
Ele arreou sua besta e como uma fera a galope tocou
G
C
Na chegada de Botucatu pra um caboclo ele perguntou
F
G
C F
G C
Seu moo essa mulher l nas fortunata vi quando ela entrou, ai.
C---------------------------G------------------------------------C----------------------------------Num barzinho ali na sada sem destino resolveu chegar
F
G
C
Encontrou com um tal Menegildo e com o Costinha pegou conversar
G
C
Vocs querem pegar uma empreitada s se for pra no trabalhar
F
G
C F
G C
Pra matar a minha mulher minha proposta vai lhe agradar, ai.
C--------------------------------G---------------------------C----------------------------------O Costinha montou a cavalo e tocou l pra fortunata
F
G
C
Conversando com Ana Rosa disse que era um tropeiro da zona da mata
21
Aprenda Viola Caipira - Violeiro Cristiano Scuciatto - Material Desenvolvido para fins didticos

G
C
Meu patro lhe mandou uma proposta diz que leva e nunca lhe maltrata
F
G
C F
G C
Seu marido anda a sua procura jurou que encontrando ele te ma...ta.
C
G
C----------------------------------Ana rosa montou na garupa e o cavalo saiu galopeando
F
G
C
Quando chegou no lava-p aonde os bandidos j estavam esperando
G
C
Quando ela avistou seu marido para todo santo foi chamando
F
G
C
F
G C
Vou perder minha vida inocente partirei com Deus deste mundo tirano, ai.
C
G
C----------------------------------Derrubaram ela da garupa j fazendo cruel judiao
F
G
C
Foi cortando ela aos pedaos uma preta assistindo a cruel judiao
G
C
Foi correr dar parte a autoridade j fizeram imediata priso
F
G
C F
G C
Hoje l construram uma igreja tem feito milagre pra muitos cristos, ai

Prof. Cristiano Scuciatto (19) 9105-9159 cristianomusicas31@gmail.com


http://aprendaviolacaipira.blogspot.com.br/
22
Aprenda Viola Caipira - Violeiro Cristiano Scuciatto - Material Desenvolvido para fins didticos

Comitiva Esperana Almir Sater e Paulo Simes


Tom: D
D

D
G
D
Nossa viagem no ligeira, ningum tem pressa de chegar
G
D
A nossa estrada, boiadeira, no interessa onde vai dar
G
D
G
D
Onde a Comitiva Esperana, chega j comea a festana
A7
D
Atravs do Rio Negro, Nhecolndia e Paiagus
A7
D
Vai descendo o Piqueri, o So Loureno e o Paraguai
D

D
G
D
T de passagem, abre a porteira, conforme for pra pernoitar
Se a gente boa, hospitaleira,
G
D
a Comitiva vai tocar
G
Moda ligeira, que uma doideira,
G
D
G
assanha o povo e faz danar
A7
G
A7
Oh moda lenta que faz so nhar
-----------------------------------------------------------------------------------------G
D
Onde a Comitiva Esperana.......
-----------------------------------------------------------------------------------------E
A7
, tempo bom que estava por l,
G
D
E
Nem vontade de regressar
A7 (brek)
S voltemo eu v confessar
23
Aprenda Viola Caipira - Violeiro Cristiano Scuciatto - Material Desenvolvido para fins didticos

que as guas chegaram em Janeiro,


A7
deslocamos um barco ligeiro
D Harmnico 12
Fomos pra Corumb

1|-0-0-------------|-0-0--------------|-0-0-----0---------2|-----4-4-4-2-4-4-|------4-4-4-2-4-4-|-----4-4---4-2-0---3|-----------------|------------------|-------------------4|-----------------|------------------|-------------------5|-----------------|------------------|-------------------Harmnico
1|-----------------------|---------------|-------------122|-0-2-0-----------------|---------------|-------------12
3|-------1-0-0-1-0-------|-3-3-3-0-1-0-0-|-3-3-3-0-1-0-12
4|-----------------2-0-0-|-4-4-4-0-2-0-0-|-4-4-4-0-2-0-12
5|-----------------------|---------------|-------------12
1|------------------------5|1|-------------------------2|------------------------5|2|--------------------------3|-----8-7---10-8-7-------5|3|-7----8----10-8---7---5---3
4|-7-9-----9--------9-7-6-5|4|-7----9----11-9---7---5---4
5|------------------------5|5|--------------------------- que as guas che ga ram em
1|----------------------------------------------------------2|----------------------------------------------------------3|-0-1-1----1----3---5--3---1--0-----0-1-1---7--7--7---3-3-3-0
4|-0-2-2----2----4---5--4---2--0--2--0-2-2---7--7--7---4-4-4-0
5|--------------------------------4-------------------------Janeiro
des co la mos um barco ligeiro fomos pra Corumb
24
Aprenda Viola Caipira - Violeiro Cristiano Scuciatto - Material Desenvolvido para fins didticos

A Vaca j Foi Pro Brejo Tio Carreiro e Pardinho (D+)


Tom: C (Introduo) G C G C G C

1|-14/16-16-14-13-13-13-16-16-11-14-14-11-13
2|-------------14-14-14-18-18-13-16-16-13-14
3|-----------------------------------------4|-----------------------------------------5|------------------------------------------

C
Mundo velho est perdido J no endireita mais
G
Os filhos de hoje em dia j no obedece os pais
o comeo do fim J estou vendo sinais
F
G
C
GC
Metade da mocidade esto virando marginais
F
um bando de serpente
G
C
G
C
Os mocinhos vo na frente, as mocinhas vo atrs...
(Introduo) G C G C G C
C
Pobre pai e pobre me Morrendo de trabalhar
G
Deixa o coro no servio pra fazer filho estudar
Compra carro a prestao Para o filho passear
F
G
C
GC
Os filhos vivem rodando fazendo pneu cantar
F
Ouvi um filho dizer
G
C
G
C
O meu pai tem que gemer, no mandei ningum casar...
(Introduo) G C G C G C
C
O filho parece rei Filha parece rainha, Eles que mandam na casa
G
e ningum tira farinha,
Manda a me calar a boca, Coitada fica quietinha
F
G
C GC
O pai um zero esquerda, um trem fora da linha
25
Aprenda Viola Caipira - Violeiro Cristiano Scuciatto - Material Desenvolvido para fins didticos

F
Cantando agora eu falo
G
C
G
C
Terreiro que no tem galo quem canta frango e franguinha...
(Introduo) G C G C G C
C
Pra ver a filha formada, Um grande amigo meu
G
O po que o diabo amassou o pobre homem comeu, Quando a filha se
formou, Foi s desgosto que deu
F
G
C GC
Ela disse assim pro pai: "quem vai embora sou eu"
F
Pobre pai banhado em pranto
G
C
G
C
O seu desgosto foi tanto que o pobre velho morreu...
(Introduo) G C G C G C
C
Meu mestre Deus nas alturas, O mundo meu colgio
G
Eu sei criticar cantando: Deus me deu o privilgio, Mato a cobra e mostro
o pau, Eu mato e no apedrejo
F
G
C
GC
Drago de sete cabeas tambm mato e no aleijo
F
Estamos no fim do respeito
G
C
G
C GC
Mundo velho no tem jeito, a vaca j foi pro brejo

Prof. Cristiano Scuciatto (19) 9105-9159


http://aprendaviolacaipira.blogspot.com.br/
cristianomusicas31@gmail.com
26
Aprenda Viola Caipira - Violeiro Cristiano Scuciatto - Material Desenvolvido para fins didticos

Peito Sadio ndio Cachoeira


Tom: D (Introduo) D D7 G A7 D A7 D
1|--0--2--4--4--7--7--5----0--4--4--2--2--0--0-----2|-------------------------------------------------3|--0--1--3--3--6--6--5----0--3--3--1--1--0--0-----4|-------------------------------------------------5|--------------------------------------------------

D
G
A7
D
Foi s quatro horas da manh meu cachorro de guarda latiu
A7
D
Levantei para ver o que era, e vesti meu casaco de frio
D7
G
A7
D
Ento vi que chegou um mensageiro amuntado num burro turdilho
A7
D
Apiou e me disse bom dia o bolso da bardana ele abriu
D7
G
D
A7
D
Uma carta o rapaz me entregou e de novo amuntou e na estrada sumiu
Tom: D (Introduo) D D7 G A7 D A7 D
D
G
A7
D
Dei a carta pro meu irmo ler, ele leu me olhando sorriu
A7
D
convite pr nis ir na festa, vai haver um grande desafio
D7
G
A7
D
O meu pai j correu no vizinho, foi chamar o vov e o titio
A7
D
Nis cheguemo a pular de contente, l em casa ningum mais dormiu
D7
G
D
A7
D
Pr quebra aqueles campeonato, nem com sindicato ningum conseguiu.
Tom: D (Introduo) D D7 G A7 D A7 D
D
G
A7
D
Violeiro que mandou convite mora l no outro lado do rio
A7
D
Ele pensa que nis no vai l, mais nis semo caboclo de brio
D7
G
A7
D
A peteca aqui do nosso lado por enquanto no cho no caiu
27
Aprenda Viola Caipira - Violeiro Cristiano Scuciatto - Material Desenvolvido para fins didticos

A7
D
Quando nis cheguemo no catira os mais fraco na hora sumiu
D7
G
D
A7
D
S cantemo moda de campeo, e os tar que era bo nem sequer reagiu.
Tom: D (Introduo) D D7 G A7 D A7 D
D
G
A7
D
Perguntei para o dono da festa, onde foi que o senhor conseguiu
A7
D
Esse tar violeiro famoso, que as moda de ns engoliu
D7
G
A7
D
O festeiro ficou pensativo, e mordeu no cigarro e cuspiu
A7
D
Vocs so dois caboclo batuta, quem falou podes cr no mentiu
D7
G
D
A7
D
Teve algum que cant experimentou mais o peito falhou e a voz no saiu

Tom: D (Introduo) D D7 G A7 D A7 D
D
G
A7
D
As viola ns faz de encomenda nosso peito tratado e sadio
A7
D
J cantemo trs noite seguida e as moda ns no repetiu
D7
G
A7
D
Quem repete relgio de igreja e o triste cantar do tiziu
A7
D
E agora com esta vitria, ainda mais nossa fama subiu
D7
G
D
A7
DA7-D
E vocs no deve discutir se viemos aqui, foi vocs quem pediu.

28
Aprenda Viola Caipira - Violeiro Cristiano Scuciatto - Material Desenvolvido para fins didticos

29
Aprenda Viola Caipira - Violeiro Cristiano Scuciatto - Material Desenvolvido para fins didticos

ESCALA DE L 2 Oitavas
1|-------------------------------------------|
2|-------------------------------------------|
3|----------------------------0----2-----0---|
4|------------------0----2-------------------|
5|-0---0---2---4-----------------------------|
L L Si D#
Re
Mi F# Sol# La

1|------------------0----2----4----6-----7--|
2|----0---2---4-----------------------------|
3|------------------------------------------|
4|------------------------------------------|
5|------------------------------------------|
L Si D#
Re
Mi F# Sol# La

REPERTRIO DE GUARANIAS

30
Aprenda Viola Caipira - Violeiro Cristiano Scuciatto - Material Desenvolvido para fins didticos

Chalana Almir Sater


Tom: D

D
A7
D
La vai uma chalana Bem longe se vai
D
A7
Navegando no remanso Do rio Paraguai
G
D
Oh! Chalana sem querer Tu aumentas minha dor
A7
D
Nessas guas to serenas Vai levando meu amor
Oh! Chalana....
D
A7
E assim ela se foi Nem de mim se despediu
G
A7
D
A chalana vai sumindo Na curva l do rio
A7
E se ela vai magoada Eu bem sei que tem razo
D
Fui ingrato Eu feri o seu meigo corao
Oh! Chalana sem querer......

Chalana uma espcie de embarcao, usada para a navegao nos rios pantaneiros entre
Brasil e Bolvia, principalmente no rio Paraguai. Ficaram famosas com a msica "Chalana", de
Mario Zan e Arlindo Pinto, interpretada por Almir Sater. o principal meio de transporte nas
regies mais remotas do Pantanal, por ser uma embarcao de grande porte. Ao contrrio das
gaiolas, que no tm divises internas, as chalanas tm cabinas para os passageiros.

31
Aprenda Viola Caipira - Violeiro Cristiano Scuciatto - Material Desenvolvido para fins didticos

Chalana Solo Viola Caipira


||-0-----2--4---7----4--2--0-----0----2---4----4----2---0----|
||-----------------------------------------------------------|
||-0-----1--3---7----3--1--0--=--0----1---3----3----1---0--1-|
||---------------------------------------------------------2-|
||-----------------------------------------------------------|
4
2
2
4
2
2
La vai a

cha lana bem lon ge se vai

riscando o re manso do rio

Pa

ra guai

||--5--------4----5-----4--------2----4---------------------|
||----------------------------------------------------------|
||--5--------3----5-----3--------1----3---------------------|
||----------------------------------------------------------|
||----------------------------------------------------------|
5
Oh Chalana sem

que

rer

5
Tu aumentas

nha
Mi

dor

||--------0--2---7---5---4----2-----0-----------------------|
||----------------------------------------------------------|
||---1----0--1---7---5---3----1-----0-----------------------|
||---2------------------------------------------------------|
||----------------------------------------------------------|
2
Nessas

2
2
2
2
2
2
aguas tose re nas vai levan do o meu amor

||---4---12---12---11----9----7------5----7---9----7--5----4|
||----------------------------------------------------------|
||---3---12---12---10----8----7------5----7---8----7--5----3|
||----------------------------------------------------------|
||----------------------------------------------------------|
5
2
E assim ela se foi

2
2
2
nem de mim se despe

diu

5
2
o Chalana vai su mindo

2
2
2
la na curva do
rio

||-0-----0-----0--2---4---7---5---4--2---7---5---7--5-4-2-0|
||---------------------------------------------------------|
||-0--1--0---1-0--1---3---7---5---3--1---7---5---7--5-3-1-0|
||----2------2---------------------------------------------|
||---------------------------------------------------------|
E

se

la vai

ma

2
2
2
goada eu bem sei
tem

2 2
5
2
2 2 2
que razo fui ingrato eu feri o seu pobre
corao

32
Aprenda Viola Caipira - Violeiro Cristiano Scuciatto - Material Desenvolvido para fins didticos

Um Violeiro Toca Almir Sater (Cifra Facilitada)


Tom: G
Intro: G D C D
G
D
C
Quando uma estrela cai, no escuro da noite,
C
e um violeiro toca suas mgoas.
D
Ento os olhos dos bichos, vo ficando iluminados
C
D
C
Rebrilham neles estrelas de um serto enluarado
G
D
C
Quando o amor termina, perdido numa esquina,
C
E um violeiro toca sua sina.
D
Ento os olhos dos bichos, vo ficando entristecidos
C
D
C
Rebrilham neles lembranas dos amores esquecidos
G
D
C
Quando um amor comea, nossa alegria chama,
C
E um violeiro toca em nossa cama.
D
Ento os olhos dos bichos, so os olhos de quem ama
C
D
C
Pois a natureza isso, sem medo nem d sem drama
G
D
C
D
Tudo serto tudo paixo se um violeiro toca
G
A viola o violeiro e o amor se tocam (2X)
(Intro)

33
Aprenda Viola Caipira - Violeiro Cristiano Scuciatto - Material Desenvolvido para fins didticos

G
D
C
Quando o amor comea, nossa alegria chama,
C
E um violeiro toca em nossa cama.
D
Ento os "io" dos bichos, so os olhos de quem ama
C
D
C
Pois a natureza isso, sem medo, nem d, nem drama
Tudo serto...

Prof. Cristiano Scuciatto


(19) 9105-9159
http://aprendaviolacaipira.blogspot.com.br/
cristianomusicas31@gmail.com

34
Aprenda Viola Caipira - Violeiro Cristiano Scuciatto - Material Desenvolvido para fins didticos

Mala Amarela - Daniel R Maior


Tom D Introduo: A7 D A7 D
D
A7
D
Eram quatro e meia passava um pouquinho, o fosco clarinho rasgava o varjo
A7
D
Era o trem noturno que vinha apontando, e logo parando na velha estao
G
F#m
Em
A7
Meu corpo tremia meus olhos molhados, o meu pai do lado e a mala no cho
G
D
A7
D
Beijei o seu rosto e disse na hora, o mundo l fora me espera paizo
D
A7
D
Entrei no vago corri pra janela, e a mala amarela do velho eu catei
A7
D
O trem deu partida soqueou bruscamente, e ali novamente sua mo eu beijei
G
F#m
Em
A7
Um pouco pra diante vi minha casinha, e a minha mezinha de p no porto
G
D
A7
D
Ela no me viu e do trem na corrida, ouvi as latidas do velho sulto
Introduo: A7 D A7 D
D
A7
D
Um certo senhor da poltrona vizinha, dizia que vinha do paranazo
A7
D
Me disse tambm num jeito cortes, a primeira vez que deixo o serto
G
F#m
Em
A7
Pedi seu conselho e ele me disse, seu moo a velhice dura demais
G
D
A7
D
Eu sou bem mais velho e posso aconselhar, duro ficar distante dos pais
D
A7
D
Eu nunca esqueci o que o velho falou, o tempo passou e pra casa voltei
A7
D
Quem fica distante jamais se conforma, l na plataforma meus pais avistei
G
F#m
Em
A7
Desci comovido abracei ele e ela, e a mala amarela meu filho eu no vi
G
D
A7
D
Meu pai acredite na fala de um homem, pra no passar fome a mala eu vendi
E
A7
E
A7
Que pena, que pena era minha lembrana, que eu trouxe de herana do seu av
G
D
A7
D A7 - D
Mas deixa pra l eu vou me esquecer, a herana voc e voc j voltou
35
Aprenda Viola Caipira - Violeiro Cristiano Scuciatto - Material Desenvolvido para fins didticos

Prof. Cristiano Scuciatto


(19) 9105-9159
http://aprendaviolacaipira.blogspot.com.br/
cristianomusicas31@gmail.com

36
Aprenda Viola Caipira - Violeiro Cristiano Scuciatto - Material Desenvolvido para fins didticos

Cabecinha no Ombro - Almir Sater


Tom: D Introduo: D G D A7 G D

D
A7
D D7
Encosta a sua cabecinha no meu ombro e chora
G
A7
D
E conta logo as tuas mgoas todas para mim
A7
G
D
Quem chora no meu ombro eu juro que no vai embora,
A7
D
que no vai embora que no vai embora
A7
G
D
Quem chora no meu ombro eu juro que no vai embora,
A7
D
no meu ombro chora porque Gosta de mim
------------------------------------------------------------G
D
A7
D
Amor, eu quero o teu carinho, porque eu vivo to sozinho
G
D
No sei se a saudade fica ou se ela vai embora,
A7
D
se ela vai embora, se ela vai embora
G
D
No sei se a saudade fica ou se ela vai embora,
A7
D
se ela vai embora, porque gosta de mim

37
Aprenda Viola Caipira - Violeiro Cristiano Scuciatto - Material Desenvolvido para fins didticos

Amargurado Paula Fernandes


Tom: D - Introduo: D - G - A7 - D - Bm - Em - A7 - D
D
O que feito daqueles beijos que eu te dei? Daquele amor cheio
A7
De iluso. Que foi a razo do nosso querer
Em
A7
Pra onde foram tantas promessas que me fizeste?
G
A7
D A7
No se importando que o nosso amor viesse a morrer
-----------------------------------------------------------------------------------------------D
Talvez com outro estejas vivendo bem mais feliz
D7
G
Dizendo ainda que nunca houve amor entre ns
A7
D
Pois tu sonhavas com a riqueza que eu nunca tive
Bm
Em
E se ao meu lado muito sofreste,
A7
D (C#m \ Bm)
O meu desejo que vivas melhor
-----------------------------------------------------------------------------------------------A7
G
A7
D
Vai com Deus, sejas feliz com o seu amado
A7
G
D D7
Tens aqui um peito magoado, Que muito sofre por te amar
G
A7
Eu s desejo que a boa sorte siga teus passos.
G
Mais se tiveres algum fracasso,
A7
D
Creias que ainda, eu possa ajudar
( D G A7 D Bm Em A7 D )
D---------------------------------------------------------------------------------------Talvez com outro...

38
Aprenda Viola Caipira - Violeiro Cristiano Scuciatto - Material Desenvolvido para fins didticos

Prof. Cristiano Scuciatto (19) 9105-9159


http://aprendaviolacaipira.blogspot.com.br/
cristianomusicas31@gmail.com

39
Aprenda Viola Caipira - Violeiro Cristiano Scuciatto - Material Desenvolvido para fins didticos

Sem voc Victor & Leo


Tom: A (intro) A F#m D E
A
Nas incertezas de um caminho que to dodo sem voc
F#m
eu j me encontrava to sozinho antes de adeus voc dizer
D
na mgoa de um sonho que acabou
A
E
A
dia a dia sentia voc partir sem rumo perdido vou ficando aqui
(refro) --------------------------------------------------------------------------A
F#m
D
sem voc...sem voc nem o tempo me faz companhia
Bm
E
A
F#m
no me arranque essa agonia de viver sem voc...sem voc
D
Bm
E
o silncio dessas horas frias so palavras que no sei dizer
A F#m D Bm E
ainda amo voc ---------------------------------------------------------(voltar ao incio)
(repete o refro na 2 vez)
(termina com o verso)
A
ainda amo voc

Prof. Cristiano Scuciatto


(19) 9105-9159
http://aprendaviolacaipira.blogspot.com.br/
cristianomusicas31@gmail.com
40
Aprenda Viola Caipira - Violeiro Cristiano Scuciatto - Material Desenvolvido para fins didticos

Ainda Ontem Chorei de Saudade Edson Hudson


Tom: D - Intro: D Em A7 D A7 D D7 G A7
D
Em
Voc me pede na carta que eu desaparea
A7
D A7 D
Que eu nunca mais te procure, pr sempre te esquea
D
Em
Posso fazer sua vontade, atender seu pedido
A7
D A7 - D
Mas esquecer bobagem, tempo perdido
----------------------------------------------------------------------------------------------D
A7
Ainda ontem chorei de saudade
D A7 D
Relendo a carta, sentindo o perfume
D
Em
Mas que fazer com essa dor que me invade
A7
D A7 D
Mato esse amor ou me mata, o cime
Intro: D Em A7 D A7 D D7 G A7
D
Em
O dia inteiro te odeio, te busco, te cao
A7
D A7 D
Mas no meu sonho de noite, te beijo, te abrao
D
Em
Porque os sonhos so meus, ningum rouba e nem tira
A7
D A7 D
Melhor sonhar na verdade Que amar na mentira
Ainda ontem ...........
Prof. Cristiano Scuciatto
(19) 9105-9159
http://aprendaviolacaipira.blogspot.com.br/
cristianomusicas31@gmail.com
41
Aprenda Viola Caipira - Violeiro Cristiano Scuciatto - Material Desenvolvido para fins didticos

42
Aprenda Viola Caipira - Violeiro Cristiano Scuciatto - Material Desenvolvido para fins didticos

Saudades da Minha Terra


Gravado pela 1 vez em 1966 por Belmonte e Amara Autor: Gerson Coutinho da Silva - Goi
Tom: R - Cebolo em R

1|-0/7--5-4-7-5-4-2---0/09--7-5-09-7-5-4-----|
2|-0/9--7-5-9-7-5-4---0/10--9-7-10-9-7-5-----|
3|-------------------------------------------|
4|-------------------------------------------|
5|-------------------------------------------|
1|-0/7--5-4-7-5-4---11-11--09-09--7-7---5-5-4---|
2|-0/9--7-5-9-7-5---12-12--10-10--9-9---7-7-5---|
3|----------------------------------------------|
4|----------------------------------------------|
5|----------------------------------------------|
INTRODUO: D \ A7 \ A7 \ D \ D \ AG \ F#m Em \ D
D
A7
De que me adianta viver na cidade Se a felicidade no me acompanhar
G
A7
D
Adeus, paulistinha do meu corao L pro meu serto eu quero voltar
G
E
A7
Ver a madrugada, quando a passarada Fazendo alvorada comea a cantar
G
A7 D
Com satisfao arreio o burro Cortando o estrado saio a galopar
G
A7
D
E vou escutando o gado berrando Sabi cantando no jequitib
INTRODUO: D \ A7 \ A7 \ D \ D \ AG \ F#m Em \ D
D
A7
Por nossa senhora, meu serto querido Vivo arrependido por ter te deixado
G
A7 D
Esta nova vida aqui na cidade De tanta saudade, eu tenho chorado
G
E
A7
Aqui tem algum, diz que me quer bem Mas no me convm, eu tenho pensado
G
A7
D
Eu digo com pena, mas essa morena No sabe o sistema que eu fui criado
G
A7
D
T aqui cantando de longe escutando Algum est chorando com o rdio ligado
INTRODUO: D \ A7 \ A7 \ D \ D \ AG \ F#m Em \ D
D
A7
Que saudade imensa do campo e do mato Do manso regato que corta as campinas
G
A7 D
Aos domingos ia passear de canoa Nas lindas lagoas de guas cristalinas
43
Aprenda Viola Caipira - Violeiro Cristiano Scuciatto - Material Desenvolvido para fins didticos

G
E
A7
Que doce lembrana daquelas festanas Onde tinham danas e lindas meninas
G
A7
D
Eu vivo hoje em dia sem ter alegria O mundo judia, mas tambm ensina
G
A7
D
Estou contrariado, mas no derrotado Eu sou bem guiado pelas mos divinas
INTRODUO: D \ A7 \ A7 \ D \ D \ AG \ F#m Em \ D
D
A7
Pra minha mezinha j telegrafei E j me cansei de tanto sofrer
G
A7
D
Nesta madrugada estarei de partida Pra terra querida, que me viu nascer
G
E
A7
J ouo sonhando o galo cantando O inhambu piando no escurecer
G
A7 D
A lua prateada clareando a estrada A relva molhada desde o anoitecer
G
A7
D
Eu preciso ir pra ter tudo ali foi l que eu nasci l que eu quero morrer
PARA TERMINAR D G G# \ AG \ F#m Em \ D

Prof. Cristiano Scuciatto (19) 9105-9159


http://aprendaviolacaipira.blogspot.com.br/
cristianomusicas31@gmail.com
44
Aprenda Viola Caipira - Violeiro Cristiano Scuciatto - Material Desenvolvido para fins didticos

60 Dias Apaixonado Chitozinho & Xoror


Tom: C - Tom: C =Intro: C G C G C
C
G
F
C
Viajando pra mato grosso, Aparecida do Taboado.
G
C
L conheci uma morena, que me deixou amarrado.
G
C
Deixei a linda pequena por Deus confesso desconsolado.
C7
F
G
C
Mudei o jeito de ser, bebendo pra esquecer, 60 dias apaixonado.
=Intro: G C G C
C
G
F
C
Dois meses juntinho dela eternamente sero lembrados
G
C
Pedaos da minha vida, lembranas do meu passado, jamais ser
G
C
C7
esquecida A imagem dela, de um anjo amado, dois meses passaram
F
G
C
logo, num copo que eu afogo 60 dias apaixonado.
=Intro: G C G C
C
G
F
C
Se algum fala em Mato Grosso eu sinto o peito despedaado
G
C
O pranto rola depressa no meu rosto j cansado
G
C
Jamais eu esquecerei Aparecida do Taboado,
C7
F
G
C
Deixei a minha querida, deixei minha prpria vida 60 dias apaixonado.
C7
F
G
C
Deixei a minha querida, deixei minha prpria vida 60 dias apaixonado.
Final: G C C C

45
Aprenda Viola Caipira - Violeiro Cristiano Scuciatto - Material Desenvolvido para fins didticos

Prof. Cristiano Scuciatto


(19) 9105-9159
http://aprendaviolacaipira.blogspot.com.br/
cristianomusicas31@gmail.com

46
Aprenda Viola Caipira - Violeiro Cristiano Scuciatto - Material Desenvolvido para fins didticos

Tocando Em Frente
Almir Sater e Renato Teixeira - Cebolo em R - Tom: C Introduo:

F
C
F

Dm
C
Dm

F
F
C

Dm
Dm
C

G
F
Ando devagar porque j tive pressa
C
E levo esse sorriso, porque j chorei demais
G
F
Hoje me sinto mais forte, mais feliz quem sabe
C
G
Eu s levo a certeza de que muito pouco eu sei, eu nada sei
F
Dm
F
Conhecer as manhas e as manhs,
Dm
C
O sabor das massas e das mas,
F
Dm
F
preciso o amor pra poder pulsar,
Dm
F
preciso paz pra poder sorrir,
C
preciso a chuva para florir.
G
F
Penso que cumprir a vida seja simplesmente
C
Compreender a marcha, e ir tocando em frente
G
F
Como um velho boiadeiro levando a boiada,
C
eu vou tocando os dias pela longa estrada eu vou,
G
de estrada eu sou
47
Aprenda Viola Caipira - Violeiro Cristiano Scuciatto - Material Desenvolvido para fins didticos

Conhecer......
G
F
Todo mundo ama um dia todo mundo chora,
C
Um dia a gente chega, no outro vai embora
G
F
Cada um de ns compe a sua histria,
C
E cada ser em si, carrega o dom de ser capaz,
G
E ser feliz
Ir para: Conhecer...
Depois: Penso que cumprir a vida... FIM

48
Aprenda Viola Caipira - Violeiro Cristiano Scuciatto - Material Desenvolvido para fins didticos

Telefone Mudo Michel Tel (Pout Pourri)


Tom: F - Intro: (F G Am) Bb F C F (2x)

(F G Am)

Bb
F
Eu quero que risque meu nome da sua agenda
C
Bb
F (F G Am)
Esquea meu telefone, no me ligue mais
Bb
F
Porque j estou cansado de ser o remdio
C
Pra curar seu tdio
Bb
F
Quando seus amores no lhe satisfaz
C
Bb
F
Cansei de ser o seu palhao Fazer o que sempre quis
C
Cansei de curar sua fossa
Bb
F
Quando voc no se sentia feliz
C
Bb
F
Por isso que decidi O meu telefone cortar
C
Bb
C
F
Voc vai discar vrias vezes Telefone mudo no pode chamar.

Boate Azul
Tom: D#

Intro: Fm Bb Gm Cm Fm G Cm C7 (2x)
Cm
Bb
Doente de amor procurei remdio na vida noturna com a
Ab
G
Flor da noite em uma boate aqui na zona sul, a dor do
Fm
Cm
Amor e com outro amor que a gente cura, vim curar a
G
Cm C7
Dor deste mal de amor na boate azul
Fm
Cm
E quando a noite Vai se agonizando no claro da aurora
G
Cm C7
Os integrantes da Vida noturna se foram dormir
49
Aprenda Viola Caipira - Violeiro Cristiano Scuciatto - Material Desenvolvido para fins didticos

Fm
Cm
e a dama da noite que estava Comigo tambm foi embora
Ab
G
C
Fecharam-se as portas Sozinho de novo tive que sair,
G
Sair de que jeito? Se nem
F
C
Sei o rumo para onde vou muito vagamente me lembro
G
F
C
G
Que estou em uma boate aqui na zona sul eu bebi demais
F
C
E no consigo me lembrar, se quer qual o nome
G
F
G
C
Daquela mulher a flor da noite na boate azul.

Prof. Cristiano Scuciatto


50
Aprenda Viola Caipira - Violeiro Cristiano Scuciatto - Material Desenvolvido para fins didticos

Trem do Pantanal - Almir Sater - R Maior


Tom: D (intro) E G#7 C#m E A
(tab viola)

E G#7 C#m C F#m B7 E

|4-4-7-5-7-5-5-s-7|7-5-5-4-4-2-2-s--9|-9--9-8-9-8|8-8-8|12-12-12-12-12-12-|
|5-5-9-7-9-7-7-s-9|9-7-7-5-5-4-4-s-10|10-10-9-9-9|9-9-9|14-14-14-14-14-14-|
|-----------------|------------------|-----------|-----|------------------|
|-----------------|------------------|-----------|-----|------------------|
|-----------------|------------------|-----------|-----|------------------|
|4-4-5-5-7-7--9-s|-9--9--9-s-10-10-s-12-12-12-12-12-8-s|-9|4-4-4-5-5-4-2-2-4-4-2-0|
|5-5-7-7-9-9-10-s|10-10-10-s-12-12-s-14-14-14-14-14-9-s|10|8-5-5-7-7-5-4-4-5-5-4-5|
|----------------|-------------------------------------|--|-----------------------5
|----------------|-------------------------------------|--|-----------------------|
|----------------|-------------------------------------|--|-----------------------|

D
F#
Enquanto este velho trem atravessa o pantanal
Bm
D
G
As estrelas do cruzeiro fazem um sinal
D
F#
De que este o melhor caminho
Bm
Bb
Em
A7
D
Pra quem como eu, mais um fugitivo da gue rra
D
F#
Enquanto este velho trem atravessa o pantanal
Bm
D
G
O povo l em casa espera que eu mande um postal
D
F#
Bm Bb
Dizendo que eu estou muito bem vi
vo
Em
A7
D
Rumo a Santa Cruz de La Sie
rra
D
F#
Enquanto este velho trem atravessa o pantanal
Bm
D
G
S meu corao est batendo desigual
D
F#
Bm
Bb
Ele agora sabe que o medo
viaja tambm

51
Aprenda Viola Caipira - Violeiro Cristiano Scuciatto - Material Desenvolvido para fins didticos

Em
A7
D
Sobre todos os trilhos da te
rra
Em
A7
D
Rumo a Santa Cruz de La Sie
rra
Em
A7
D
Sobre todos os trilhos da te
rra
(solo) D F# Bm D G -

D F# Bm Bb Em A7 D

D
F#
Enquanto este velho trem atravessa o pantanal
Bm
D
G
S meu corao esta batendo desigual
D
F#
Bm
Bb
Ele agora sabe que o medo
viaja tambm
Em
A7
D Bb
Sobre todos os trilhos da te
rra
Em
A7
D Bb
Rumo a Santa Cruz de La Sie
rra
Em
A7
D
Sobre todos os trilhos da te
rra

52
Aprenda Viola Caipira - Violeiro Cristiano Scuciatto - Material Desenvolvido para fins didticos

Amanheceu, Peguei a Viola - Renato Teixeira


1-4-5-7--9--9--9-7--9-7--9--9--9-7--9-11--9-7-7-5-7-5-7-7-7-5-7--9-7-5-5-4-5-4-5-5-5-4-5-7-42-5-7-9-10-10-10-9-10-9-10-10-10-9-10-12-10-9-9-7-9-7-9-9-9-7-9-10-9-7-7-5-7-5-7-7-7-5-7-9-53-------------------------------------------------------------------------------------------4-------------------------------------------------------------------------------------------5--------------------------------------------------------------------------------------------

Refro 2x:
D
G
D
G
D
A7 D
Amanheceu, peguei a viola botei na sacola e fui viajar

D7
G
Sou cantador e tudo nesse mundo, vale pra que eu cante e possa
Ab
D
Praticar. A minha arte sapateia as cordas
E
A7
E esse povo gosta de me ouvir cantar.
Refro...
2.
D7
G
Ao meio-dia eu tava em Mato Grosso, do sul ou do norte, no sei
Ab
D
Explicar. S sei dizer que foi de tardezinha,
E
A7
Eu j estava cantando em Belm do Par.
Refro...
3.
D7
G
Em Porto Alegre um tal de coronel, pediu que eu musicasse um verso
Ab
D
que ele fez. Para uma china, que pela poesia,
E
A7
Nem l em Pequim se v tanta altivez.
Refro...
4.
D7
G
Parei em minas pra trocar as cordas, e segui direto para o Cear.
53
Aprenda Viola Caipira - Violeiro Cristiano Scuciatto - Material Desenvolvido para fins didticos

Ab
D
E no caminho fui pensando, lindo,
E
A7
Essa grande aventura de poder cantar.
Refro...
5.
D7
G
Chegou a noite e me pegou cantando, num bailo, no norte l do Paran.
Ab
D
Da pra frente ningum mais se espanta,
E
A7
E o resto da noitada eu no posso contar.

D
G
D
Anoiteceu, e eu voltei pra casa,
G
D
G
D
Que o dia foi longo e o sol foi descansar.
Refro...

54
Aprenda Viola Caipira - Violeiro Cristiano Scuciatto - Material Desenvolvido para fins didticos

Escolta de Vagalumes Srgio Reis


Tom: D - (intro) D G D A7 D D7 G D A7 D
D
A7
Bm D7
Voltando pra minha terra eu renasci
G
D7
G
Nos anos que fiquei distante acho que morri
A7
G
D
Morri de saudade dos pais irmos e companheiros
A7
Ao cair da tarde no velho terreiro
G
D
A gente cantava as mais lindas canes
A7
G
D
Viola afinada e na voz dueto perfeito
A7
Longe eu no cantava doa meu peito
G
A7 D
Na cidade grande s tive iluses
(refro) -----------------------------------------------------------------------------------A7
Bm
Mas voltei, mas voltei, eu voltei
A7
G
D
E ao passar na porteira a mata o perfume
A7
Eu fui escoltado pelos vagalumes
G
D
Pois era uma linda noite de luar
A7
Bm
Mas chorei, mas chorei, eu chorei
A7
G
D
Ao ver meus pais meus irmos vindo ao meu encontro
A7
A felicidade misturou meu pranto
G
A7 D
Com o orvalho da noite deste meu lugar
55
Aprenda Viola Caipira - Violeiro Cristiano Scuciatto - Material Desenvolvido para fins didticos

(intro) D G D A7 D D7 G D A7 D
D
A7
Bm D7
Ganhei dinheiro l fora mas foi tudo em vo
G
D7
G
A natureza meu mundo, eu sou o serto
A7
G
D
Correr pelos campos floridos feito um menino
A7
Esquecer as magoas e os desatinos
G
D
Que a vida l fora me proporcionou
A7
G
D
Ouvir sabi cantando e a juriti
A7
E a felicidade de um bem-te-vi
G
A7
D
Que parece dizer meu amigo voltou
(refro)

Prof. Cristiano Scuciatto (19) 9105-9159 cristianomusicas31@gmail.com


http://aprendaviolacaipira.blogspot.com.br/

56
Aprenda Viola Caipira - Violeiro Cristiano Scuciatto - Material Desenvolvido para fins didticos

ndia - Paula Fernandes Leonardo


Cebolo em R Tom: Gm
Introduo - 2x: Cm Gm D7 Gm
Gm
ndia seus cabelos nos ombros cados
Cm
Gm
Negros como a noite que no tem luar
Gm
Seus lbios de rosa para mim sorrindo
Cm
Gm
E a doce meiguice desse seu olhar
Cm
Bb
D7
G
ndia da pele morena, sua boca pequena eu quero beijar
G
Am D
G
ndia, sangue tupi, tens o cheiro da flor
G
Am
Vem, que eu quero te dar
D
G Gm
Todo meu grande amor
Gm
Quando eu for embora para bem distante
Cm
Gm
E chegar a hora de dizer adeus
Gm
Fica nos meus braos s mais um instante
Cm
Gm
Deixa os meus lbios se unirem aos teus
Cm
Bb
D
G
ndia levarei saudade da felicidade que voc me deu
G
Am
ndia, a sua imagem
D
G
Sempre comigo vai
G
(Brek)
Am
D
G Cm G
Dentro do meu
corao, flor do meu Paraguai

57
Aprenda Viola Caipira - Violeiro Cristiano Scuciatto - Material Desenvolvido para fins didticos

Prof. Cristiano Scuciatto


(19) 9105-9159
http://aprendaviolacaipira.blogspot.com.br/
cristianomusicas31@gmail.com

58
Aprenda Viola Caipira - Violeiro Cristiano Scuciatto - Material Desenvolvido para fins didticos

Jeito de Mato Paula Fernandes Almir Sater


(primeira parte)
A
F#m
De onde quem vem esses olhos to tristes?
A
F#m
Vem da campina onde o sol se deita
D
F#m
Do regalo de terra que teu dorso ajeita.
Bm
D
E dorme serena, no sereno e sonha
A
F#m
De onde que salta essa voz to risonha?
A
F#m
Da chuva que teima, mas o cu rejeita
D
F#m
No mato, do medo, da perda tristonha
Bm
D
Mas, que o sol resgata, arde deleita
(segunda parte)
A
E
H uma estrada de pedra que passa na fazenda
F#m
teu destino, tua senda.
D
De onde nascem tuas canes
A
E
As tempestades do tempo que marcam tua histria
F#m
Fogo que queima na memria
D
E acende os coraes

59
Aprenda Viola Caipira - Violeiro Cristiano Scuciatto - Material Desenvolvido para fins didticos

(terceira parte)

Bm
D
Sim, dos teus ps na terra nascem flores
F#m
A tua voz macia aplaca as dores
E
E espalha cores vivas pelo ar
Bm
D
Sim, dos teus olhos saem cachoeiras
F#m
Sete Lagoas, mel e brincadeiras
E Bm D
Espumas, ondas, guas do teu mar
(intro)

(* da parte em que o Almir canta em diante, basta repetir a intro, e cantar junto)

A
F#m
De onde quem vem esses olhos to tristes?
D
Bm
Vem da campina onde o sol se deita
A
F#m
De onde que salta essa voz to risonha
D
Bm E
Dorme serena, no sereno e sonha
A
F#m
D
De onde quem vem esses olhos to tristes...
Bm
A
Dorme serena e sonha

60
Aprenda Viola Caipira - Violeiro Cristiano Scuciatto - Material Desenvolvido para fins didticos

NOITE FELIZ
Letra Joseph Mohr e msica Violonista Franz
Gruber em 1818
C
G
C
C7
1. Noite feliz, noite feliz, senhor, Deus de amor
F
C
F
C
Pobrezinho nasceu em Belm Eis na lapa Jesus, nosso bem
G
C
C
G
C
Dorme em paz, Jesu________us Dorme em paz, Jesus
C
G
C
C7
2. Noite feliz, noite feliz Jesus, Deus da luz
F
C
F
C
Quo afvel teu corao Que quiseste nascer nosso irmo
G
C
C C
G
C
E a ns todos salva________ar E a ns todos salvar
C
G
C
C7
3. Noite feliz, noite feliz Eis que no ar vem cantar
F
C
F
C
Aos pastores, seus anjos no cu Anunciando a chegada de Deus
G
C
C
G
C
De Jesus Salvado_______or De Jesus Salvador

61
Aprenda Viola Caipira - Violeiro Cristiano Scuciatto - Material Desenvolvido para fins didticos

NOITE FELIZ "Stille Nacht" uma das canes mais populares da noite de Natal,
conhecida em portugus como "Noite Feliz". Foi escrita pelo padre Joseph Mohr e
musicada por Franz Gruber (Violonista) em 1818, na cidade de Oberndorf, ustria,
tendo sido executada pela primeira vez na Missa do Galo desse ano na parquia
So Nicolau. Tem verses em, pelo menos, 45 lnguas.
A histria da cano controversa. O que se sabe que, na vila de Oberndorf, o
padre Joseph Mohr saiu atrs de seu amigo msico Franz Gruber para que
transformasse em melodia um poema que ele havia escrito, a fim de que fosse
tocada na missa de Natal que aconteceria horas depois. Umas fontes dizem que
Mohr fez a letra dois anos antes, em 1816; outras dizem que o padre escreveu-a no
caminho at Gruber, pois, em verdade, Mohr no estava atrs do msico, mas atrs
de um instrumento para ser tocado na Missa do Galo de 1818, pois o rgo de sua
parquia teria tido os foles rodos por ratos. Neste conto, Mohr ficara deveras
preocupado com a falta de um instrumento e teria inspirado sua letra no humilde
Natal de Jesus em Belm.
A cano foi originalmente composta para violo e flauta (Em L Maior). Um
arranjo vocal por Mohr surgiu em 1820. Novos arranjos por Gruber vieram pouco
antes de sua morte (1863). Em 1845, o primeiro arranjo para orquestra aparece, e
em 1855, um novo arranjo para rgo se v. Em 1900, a msica j era
mundialmente famosa.
A igreja de So Nicolau no existe mais. Foi demolida no comeo do sc. XX, por
sofrer com constantes alagamentos, por estar perto do rio Salzach. Em seu lugar,
foi construda por volta de 1920-1930, num lugar 800 metros mais alto que o
anterior, a Capela Memorial da Noite Silenciosa (Stille-Nacht-Gedchtniskapelle),
que, apesar de acolher s 20 pessoas, recebe no fim do ano cerca de 7 mil
peregrinos para a missa de Natal, e outros quase 2 mil turistas.

62
Aprenda Viola Caipira - Violeiro Cristiano Scuciatto - Material Desenvolvido para fins didticos

REPERTRIO DE QUERUMANAS

Franguinho na Panela
Moacyr dos Santos e Paraso. Introduo: D/ D/ D/ G/ D/ G

G
D
No recanto onde moro uma linda passarela
G
O carij canta cedo, bem pertinho da janela
D
Eu levanto quando bate o sininho da capela
C
G
E l vou eu pro roado, tenho Deus de sentinela
D
G
Tm dia que meu almoo, um po com mortadela
G7
C
Am
D
Mais l no meu ranchinho a mulher e os filhinhos
GDGDGDG
Tem franguinho na panela
-----------------------------------------------------------------------------------------------G
D
Eu tenho um burrinho preto bo de arado e bo de sela
G
Pro leitinho das crianas, a vaquinha Cinderela
D
Galinha t no terreiro papagaio tagarela
C
G
Eu ando de qualquer jeito, de butina ou de chinela
D
G
Na roa se a fome aperta, vou apertando a fivela
G7
C
Am
D
Mais l no meu ranchinho a mulher e os filhinhos
GDGDGDG
Tem franguinho na panela
----------------------------------------------------------------------------------------------G
D
Quando eu fico sem servio a tristeza me atropela
G
Eu pego um bico pra fora, deixo cedo a corruptela
63
Aprenda Viola Caipira - Violeiro Cristiano Scuciatto - Material Desenvolvido para fins didticos

D
Eu levo meu viradinho um fundinho de tigela
C
G
s farinha com ovo, mas da gema bem amarela
D
G
esse o meu almoo, que desce seco na goela
G7
C
Am
D
Mais l no meu ranchinho a mulher e os filhinhos
GDGDGDG
Tem franguinho na panela
G
D
Minha mulher um doce e diz que sou o doce dela
G
Ela faz tudo pra mim, tudo o que eu fao pra ela
D
No vestimo l nem linho no algodo e na flanela
C
G
assim a nossa vida, que levamos na cautela
D
G
Se eu morrer Deus d um jeito, mais a vida muito bela
G7
C
Am
D
No vai faltar no ranchinho pra mulher e os filhinhos
G A7 D7 G
Um franguinho na panela.

QUERUMANA
64
Aprenda Viola Caipira - Violeiro Cristiano Scuciatto - Material Desenvolvido para fins didticos

Prato do Dia - Daniel e Teodoro e Sampaio


Tio Carreiro e Pardinho
Intro: G D D7 G D G
---------------G-----------------------------D
G
Sobre as margens de uma estrada - Uma simples penso existia
G7
C
G
C GC
A comida era tipo caseira - E o frango caipira era o prato do dia
G
C
G
Proprietrio homem de respeito - Ali trabalhava com sua famlia
D7
Cozinheira era a sua esposa
G
Intro G D D7 G D G
e a garonete era uma das filhas
---------------G-----------------------D
G
Foi chegando naquela penso - um viajante j fora de hora
G7
C
G
C GC
foi dizendo para a garonete - me traga um frango vou jantar agora
G
C
G
Eu estou bastante atrasado - terminando eu j vou embora
D7
ela ento respondeu num sorriso
G
Intro G D D7 G D G
mame t de p, pode crer, no demora
---------------G---------------------D
G
Quando ela foi servir a mesa - delicada e com muito bom jeito
G7
C
G
CGC
me desculpe mas trouxe uma franga - talvez no esteja cozida direito
G
C
G
O viajante foi lhe respondendo - pra mim franga crua talvez eu aceito
D7
sendo uma igual a voc
G
Intro G D D7 G D G
seja a qualquer hora tambm no enjeito

65
Aprenda Viola Caipira - Violeiro Cristiano Scuciatto - Material Desenvolvido para fins didticos

---------------G-------------------D
G
Foi saindo de cabea baixa - pra queixar ao seu pai a mocinha
G7
C
G
C GC
minha filha mate outra franga - pode temperar porm no cozinha
G
C
G
Vou levar essa franga na mesa - se bem que comigo a conversa
curtinha
D7
a coisa que mais eu detesto
G
Intro G D D7 G D G
ver homem barbado fazendo gracinha
---------------G-------------------------D
G
Foi chegando o velho e dizendo - vim trazer o pedido que fez
G7
C
G
C GC
quando o cara tentou recusar - j se viu na mira de um Schimitt ingls
G
C
G
O negcio foi limpar o prato - quando o proprietrio lhe disse cortez
D7
ns estamos de portas abertas
G A7 D7 G
pra servir a moda que pede o fregus

Querumana
udio do Tio Carreiro precisa usar capotraste na 1 casa
A verso do Daniel usa-se o capotraste na casa 3
66
Aprenda Viola Caipira - Violeiro Cristiano Scuciatto - Material Desenvolvido para fins didticos

Encantos da Natureza Tio Carreiro e Pardinho


Compositor: Tio Carreiro / Luiz de Castro
Tom: G - (intro) G D7 G D G C G D7 G D7 G CAPOSTRASTE CASA 2
G
D
G
Tu que no tiveste a felicidade - Deixa a cidade e vem conhecer
D
G
Meu serto querido, meu reino encantado - Meu bero adorado que me viu nascer
C
D
G
Venha mais de pressa, no fique pensando - Estou te esperando para te mostrar
D
G
Vou mostrar os lindos rios de guas claras - E as belezas raras do nosso luar.
(Interldio Floreado) D7 G D G D7 G -----------------------------------------------------G
D
G
Quando a lua nasce por detrs da mata - Fica cor de prata a imensido
D
G
Ento fico horas e horas olhando - A lua banhando l no ribeiro
C
D
G
Muitos no se importam com este luar - Nem lembram de olhar o luar na serra
D
G
Mas estes no vivem, so seres humanos - Que esto vegetando em cima da terra.
(Interldio Floreado) D7 G D G D7 G -----------------------------------------------------G
D
G
Quando a lua esconde logo rompe a aurora - Vou dizer agora do amanhecer
D
G
Raios vermelhados riscam o horizonte - O sol l no monte comea a nascer
C
D
G
L na mata canta toda a passarada - E l na paiada pia o choror
D
G
O reio do terreiro abre a garganta - Bate a asa e canta em cima do paiol
(Interldio Floreado) D7 G D G D7 G -----------------------------------------------------G
D
G
Quando o sol esquenta, cantam cigarras - Em grande algazarra na beira da estrada
D
G
Lindas borboletas de variadas cores - Vem beijar as flores j desabrochadas
C
D
G
Este pedacinho de cho encantado - Foi abenoado por nosso senhor
D
G A7 D7 G
Que nunca nos deixe faltar no serto - Sade unio paz e o amor

67
Aprenda Viola Caipira - Violeiro Cristiano Scuciatto - Material Desenvolvido para fins didticos

USO DO CAPOTRASTE NA CASA 2 NAS


VERSES DO DANIEL E DO TIAO CARREIRO
E PARDINHO

Querumana

68
Aprenda Viola Caipira - Violeiro Cristiano Scuciatto - Material Desenvolvido para fins didticos

Versos Aos Ps do Homem Daniel e Tio


Carreiro e Pardinho
Tom: C - (intro) G C G F C G C
Tom: G - (intro) D G D C G D G
CAPOTRASTE VERSAO TIAO CARREIRO CASA 3 - Tom Original Bb
CAPOTRASTE VERSAO DANIEL CASA 5 - Tom Original C

G
F
C
D
Deixei distante a famlia pra vir Braslia, senhor Presidente
D
C
D
G
Conduzido por um tema de um srio problema que acaba com a gente
G
D
Minha bagagem o fracasso, mas trago um abrao dos amigos meus
C
D
D7
G
Deixei toda a santaiada e fiz a jornada pra falar com Deus

G
F
C
D
Por no marcar audincia com sua excelncia se eu for barrado
D
C
D
G
Alguns dos seus constituintes que so meus ouvintes transmita o recado
G
D
No peo terra de graa, mas que algo faa pra isso que eu venho
C
D
D7
G
Por uma ajuda de custo no se justo perder o que eu tenho

G
F
C
D
Quando eu colhi meu caf eu pensei at em ser bom comeo
D
C
D
G
Mas como foi tabelado eu fui obrigado a vender do seu preo
G
D
Somente as terras que haviam, dei por garantia no financiamento
C
D
D7
G
Foi quando veio a geada e na rea plantada colhi dez por cento

69
Aprenda Viola Caipira - Violeiro Cristiano Scuciatto - Material Desenvolvido para fins didticos

G
F
C
D
O banco quer minhas terras j tomei na guerra na luta roceira
D
C
D
G
Para salvar meu futuro que o senhor procuro por minha trincheira
G
D
Mesmo o gerente do banco mostrava ser franco e meu grande amigo
C
D
D7
G
Com essa queda maldita ele evita de falar comigo

G
F
C
D
Minha herana da roa essa mo grossa que trago por prova
D
C
D
G
Creio senhor Presidente ser eficiente a repblica nova
G
D
Pensava em ser to feliz, de tudo eu fiz para no perder o nome
C
D
D7
G A7 D7 G
Mas minha f me alicera com essa conversa aos ps do homem

USO DO CAPOTRASTE NA CASA 3 NA


VERSO DO TIAO CARREIRO E PARDINHO
USO DO CAPOTRASTE NA CASA 5 NA
VERSO DO DANIEL

Querumana
70
Aprenda Viola Caipira - Violeiro Cristiano Scuciatto - Material Desenvolvido para fins didticos

Meu Reino Encantado


Composio: Valdemar Reis e Vicente Machado

A
E
Eu nasci num recanto feliz Bem distante da povoao
D
E
A
Foi ali que eu vivi muitos anos Com papai mame e os irmos
A
E
Nossa casa era uma casa grande Na encosta de um espigo
E
A E7 A E7 A
Um cercado pra parta bezerro E ao lado um grande mangueiro

A
E
No quintal tinha um forno de lenha E um pomar onde as aves cantavam
D
E
A
Um coberto pra guardar o pilo E as traias que papai usava
E
De manh eu ia ao paiol Uma espiga de milho eu pegava
A E7 A E7 A
Debulhava e jogava no cho Num instante as galinhas juntava
(Solo)
A
E
Nosso carro de boi conservado Quatro juntas de bois de primeira
D
E
A
Quatro cangas, dezesseis canzis Encostados no p da figueira
E
Todo sbado eu ia vila Fazer compra pra semana inteira
A E7 A E7 A
O papai ia gritando com os bois Eu na frente abrindo as porteiras.
A
E
Nosso stio que era pequeno Pelas grandes fazendas cercado
D
E
A
Precisamos vender a propriedade Para um grande criador de gado
71
Aprenda Viola Caipira - Violeiro Cristiano Scuciatto - Material Desenvolvido para fins didticos

E
E partimos pra a cidade grande A saudade partiu ao meu lado
A
A lavoura virou colonio E acabou-se meu reino encantado
(Solo)
A
E
Hoje ali s existem trs coisas Que o tempo ainda no deu fim
D
E
A
A tapera velha desabada E a figueira acenando pra mim
E
E por ltimo marcou saudade De um tempo bom que j se foi
A B7 E7 A
Esquecido em baixo da figueira Nosso velho carro de boi.

QUERUMANA
Prof. Cristiano Scuciatto (19) 9105-9159
http://aprendaviolacaipira.blogspot.com.br/
cristianomusicas31@gmail.com

72
Aprenda Viola Caipira - Violeiro Cristiano Scuciatto - Material Desenvolvido para fins didticos

Solo Meu Reino Encantado


Composio: Valdemar Reis e Vicente Machado
Solo Facilitado
1|----------------4-2-2-2-2----------------2--2-0--------------|
2|-----------4-------------------2-------2------------4-4-4-4--|
3|----3---3-----3--------------2-------2-----------------------|
4|--2---2--------------------2---------------------------------|
5|4------------------------------------------------------------|
1|-----------------0-0-----------------------------------------------|
2|-----------4-2-4------4-2-0-----2-0--------------------------------|
3|----3----3-------------------2--------2-0-----2-0------------------|
4|--2---2------------------------------------2-------2-0-----2-0-----|
5|4------------------------------------------------------4------4-2-0|
1|---------------------|
2|---------------------|
3|---------------------|
4|-----2-0-------------|
5|-2-4-----2-0---------|

Solo Original
1|-----------11---16-14-14-14-14|-----9---9-14-14-12-11-11-11-11|
2|----12--12---12---------------|--11---11----------------------|
3|--10--10----------------------|10-----------------------------|
4|11----------------------------|-------------------------------|
5|------------------------------|-------------------------------|
1|-----------11-9-11-12|12-11-9-----|9-7-6----|6-4------|2-0------|
2|-----12--12----------|-------12-11|------9-7|----7-5-4|----4-2-0|
3|---10--10------------|------------|---------|---------|---------|
4|-11------------------|------------|---------|---------|---------|
5|---------------------|------------|---------|---------|---------|
1|-----------------------|
2|-----------------------|
3|-----------------------|
4|--------2-0------------|
5|----2-4-----2-0--------|

73
Aprenda Viola Caipira - Violeiro Cristiano Scuciatto - Material Desenvolvido para fins didticos

REPERTRIO DE TOADAS
Cabocla Tereza PONTEADO (SOLO)
1|-7-7-7-7-5--------9-9-9-9-7----0-----7-7-7-7-5-----7-7-5-5-4-|
2|-----------7-4-0-------------9----0------------7-4-----------|
3|-------------------------------------------------------------|
4|-------------------------------------------------------------|
5|-------------------------------------------------------------|

1|----------------------------------------------------------------|
2|----------------------------------------------------------------|
3|0-3-3-3-5-5-5-3-3-3--3-3-0-3-3-3-3-3-2-1-1--1--1--1\7-7-7-8-8-8|
4|0-4-4-4-5-5-5-4--4-4--4-0-4-4-4-4-4-3-2--2--2----2\7-7-7-9-9-9|
5|----------------------------------------------------------------|

1|------------------------------------------------------------------|
2|------------------------------------------------------------------|
3|-7-7---7--7-5-5-3-3-1-1-0---0-3-3-3-5-5-5-3--3--3--3-0-3-3-3-3-3-2|
4|-7--7---7---5-5-4-4-2-2-0---0-4-4-4-5-5-5-4---4--4---0-4-4-4-4-4-3|
5|------------------------------------------------------------------|
1|---------------------------------------------------------|
2|---------------------------------------------------------|
3|-1---1----1----1-1\7-7-7-8-8-8-7-7--7--7-5---------------|
4|-2-----2----2----2\7-7-7-9-9-9-7--7--7---5---------------|
5|---------------------------------------------------------|

1|--------------------------------------------|
2|--------------------------------------------|
3|--5-5---3----1--1--0-----------------------|
4|--5---5--4----2--2--0-----------------------|
5|--------------------------------------------|

Prof. Cristiano Scuciatto


(19) 9105-9159 cristianomusicas31@gmail.com
http://aprendaviolacaipira.blogspot.com.br/
74
Aprenda Viola Caipira - Violeiro Cristiano Scuciatto - Material Desenvolvido para fins didticos

Cabocla Tereza Compositor Raul Torres-Joo


Pacfico
Introduo D \ D \ A7 \ A7 \
Declamao: D \ D \ A7 \ A7 \
L no alto da montanha Numa casa bem estranha Toda feita de sap
Parei uma noite o cavalo Por causa de dois estalos
Que ouvi l dentro bater Appei com muito jeito
Ouvi um gemido perfeito Uma voz cheia de dor:
"Voc, Tereza, descansa jurei de fazer vingana
por causa do meu amor." Pela fresta da janela
Por uma luizinha amarela De um lampio quase apagando
Vi uma cabocla no cho E um cabra tinha na mo
Uma arma alumiando Virei meu cavalo a galope
Risquei de espora e chicote Sangrei a anca do tal
Desci a montanha abaixo E galopando aquele macho
O seu doutor fui chamar Voltemos l pra montanha
Naquela casinha estranha Eu e mais seu doutor
Topei um cabra assustado Que chamando ns prum lado
A sua histria contou

D
G
D
A7
H tempo eu fiz um ranchinho Pra minha cabocla morar
A7
G
A7
G
A7
D
Pois era ali nosso ninho Bem longe deste lugar

D G
D
A7
No alto l da montanha Perto da luz do luar
A7
G
A7
Vivi um ano feliz

G
A7
D
Sem nunca isso esperar

Introduo 2 vezes D \ D \ A7 \ A7 \

75
Aprenda Viola Caipira - Violeiro Cristiano Scuciatto - Material Desenvolvido para fins didticos

D
G
D
A7
E muito tempo passou Pensando em ser to feliz
A7
G
A7
G A7
D
Mas a Tereza, doutor Felicidade no quis
D
G
D
A7
Pus meu sonho neste olhar Paguei caro o meu amor
A7
G
A7
G
A7
D
Por causa de outro caboclo Meu rancho ela abandonou
------------------------------------------------------------------------------------------------------------------------------------------------

Introduo 2 vezes D \ D \ A7 \ A7 \

D
G
D
A7
Senti meu sangue ferver Jurei a Tereza matar
A7
G
A7
G
A7
D
O meu alazo arriei E ela eu fui procurar
D
G
D
A7
Agora j me vinguei esse o fim deste amor
A7 G
A7
G
A7
D
Essa cabocla eu matei a minha histria, doutor

76
Aprenda Viola Caipira - Violeiro Cristiano Scuciatto - Material Desenvolvido para fins didticos

Chico Mineiro Tonico e Tinoco


Declamado: Cada vez que eu me alembro do amigo Chico mineiro, Das viagem que
ni fazia era ele meu copanheiro. Sinto uma tristeza, uma vontade de chorar,
Alembrando daqueles tempo que no mais hi de vortar. Apesar de eu ser patro,
eu tinha no corao o amigo Chico mineiro, Caboclo bom, decidido, na viola era
delorido e era o peo dos boiadeiro. Hoje porm com tristeza recordando das
proeza da nossa viagem motim, Viajemo mais de dez ano, vendendo boiada e
comprano, por esse rinco sem-fim. Caboclo de nada temia mas porm, chegou um
dia, que Chico apartou-se de mim.

Intro: D D7 G A7 D - Bm Em A7 D (Repete)
D------------------------A7-----------------------------------D
Fizemos a ltima viagem, Foi l pro serto de Gois.
A7
D D7
Foi eu e o Chico mineiro, Tambm foi um capataz.
G
A7
D
Viajemo muitos dia, Pra chegar em ouro fino
Bm
Em A7
D
Aonde ns passemo a noite, Numa festa do divino.

D
A7--------------------------------D
A festa estava to boa, Mas antes no tivesse ido
A7
D D7
O Chico foi baleado, Por um homem desconhecido.
G
A7
D
Larguei de comprar boiada. Mataram meu companheiro.
Bm
Em A7
D
Acabou-se o som da viola, Acabou-se o Chico mineiro.
D------------------------ A7------------------------------D
Depois daquela tragdia, Fiquei mais aborrecido.
A7
D D7
No sabia da nossa amizade, Porque ns dois era unido.
G
A7
D
Quando vi seus documento, Me cortou o corao
Bm
Em
A7
D
De sab que o Chico mineiro, Era meu legtimo irmo.
77
Aprenda Viola Caipira - Violeiro Cristiano Scuciatto - Material Desenvolvido para fins didticos

1|---------------------------------------------------------|
2|---------------------------------------------------------|
3|-0-1-3-5-5-5-5-7-7-7-5-3-3-3-3-8-8-8-8-7-7-5-5-3-5-3-1-0-|
4|-0-2-4-5-5-5-5-7-7-7-5-4-4-4-4-9-9-9-9-7-7-5-5-4-5-4-2-0-|
5|---------------------------------------------------------|

1|4-5-7-9--9-9-9--11-11-11-9--7-7-7-7-12-12-12-12-11-11-11-9--7-9--7-5-4
2|5-7-9-10-10-10-10-12-12-12-10-9-9-9-9-14-14-14-14-12-12-12-10-9-10-9-7-5
3|----------------------------------------------------------------------4|----------------------------------------------------------------------5|-----------------------------------------------------------------------

Prof. Cristiano Scuciatto


(19) 9105-9159 cristianomusicas31@gmail.com
http://aprendaviolacaipira.blogspot.com.br/

78
Aprenda Viola Caipira - Violeiro Cristiano Scuciatto - Material Desenvolvido para fins didticos

Inhambu Xint e o Xoror (Tonico e Tinoco)


Compositor: Athos Campos / Serrinha
Tom: D Ritmo: Toada
D
%
A7
%
D

A7

1|--------------------------------------------------------------------------------|
2|--------------------------------------------------------------------------------|
3|12-12-12-12-12--10-13-13-13-13-10-10-10-10-12----8-8-10-10-8-8-7-7-5-5-3-3-1-1-0|
4|12-12-12-12-12--11-14-14-14-14-11-11-11-11-12----9-9-11-11-9-9-7-7-5-5-4-4-2-2-0|
5|--------------------------------------------------------------------------------|

%
A7
%
D
%
A7
Eu no troco meu ranchinho marradinho de cip Pr'uma casa na cidade,
%
D
D7
G
%
D
Nem que seja bangal Eu moro l no deserto, Sem vizinho, eu vivo s.
%
A7
%
D
S me alegra quando pia, L pr'aqueles cafund.
%
A7
% D
% A7
D
o inhambu-xint e o xoror o inhambu-xint e o xoror
D % A7 % D % A7 % D
Solo da Introduo
D
A7
%
D
%
A7
Quando rompe a madrugada, canta o galo carij Pia triste a coruja,
%
D
D7
G
%
D
na cumeeira do paiol Quando vai o entardecer, pia triste o ja
%
A7
%
D (*coro)
S me alegra quando pia, l pr'aqueles cafund
D
A7
%
D
No me dou com a terra roxa, nem com a seca larga p
%
A7
Na baixada do areio
%
D
D7
G
%
D
eu sinto um prazer maior A rolinha quando anda, no areio faz caracol
%
A7
%
D (*coro)
S me alegra quando pia, l pr'aqueles cafund.
D
A7
%
D
%
A7
Eu fao minhas caadas Antes de sair o sol De espingarda de cartucho,
79
Aprenda Viola Caipira - Violeiro Cristiano Scuciatto - Material Desenvolvido para fins didticos

%
D
D7
G
%
D
Patrona de tiracolo Tenho buzina e cachorro Pra fazer forrobod
%
A7
%
D (*coro)
S me alegra quando pia, l pr'aqueles cafund.
D
A7
%
D
Quando eu sei de uma notcia Que outro canta melhor
%
A7
Meu corao da um balano,
%
D
D7
G
%
D
Fica meio banzar Suspiro sai do meu peito, Que nem bala jovel
%
A7
%
D (*coro)
S me alegra quando pia, L pr'aqueles cafund.

Prof. Cristiano Scuciatto


(19) 9105-9159
http://aprendaviolacaipira.blogspot.com.br/
cristianomusicas31@gmail.com

80
Aprenda Viola Caipira - Violeiro Cristiano Scuciatto - Material Desenvolvido para fins didticos

Joo de Barro (Tonico e Tinoco)


Ritmo : Toada Tom : C
C
G7
%
C

Am

G7

1|2--5--10--10---9----9---3--3------0-3-7--7--5--5--3--2---2---3--5---7--7---5--7---9---9---7-9---14--14------------------|
2|3--7--12--12--10--10---5--5------2-5-8--8--7--7--5--3---3---5--7---8---8--7--8---10-10-8-10--15-------15-------------|
3|---------------------------------------------------------------------------------------------------------------------------------13----------|
4|-------------------------------------------------------------------------------------------------------------------------------------15-14|
5|----------------------------------------------------------------------------------------------------------------------------------------------|

G7
%
C
%
G7
O Joo de Barro Pra ser feliz como eu Certo dia resolveu
%
C
%
G7
%
C
Arranjar uma companheira
Num vai e vem Com o barro da biquinha
%
G7
%
C % G7 % C Am G7 % C %
Ele fez sua casinha l no galho da paineira
G7
%
C
%
G7
Toda manh O pedreiro da floresta Cantava fazendo festa
%
C
%
G7
%
C
Pra aquela que tanto amava
Mas quando ele ia buscar uns raminhos
%
G7
%
C % G7 % C Am G7 % C %
Para construir seu ninho seu amor lhe enganava
G7
%
C
%
G7
Mas neste mundo O mal feito descoberto Joo de Barro viu de perto
%
C
%
G7
%
C
Sua esperana perdida
Cego de dor Trancou a porta da morada
%
G7
%
C % G7 % C Am G7 % C %
Deixando a sua amada Preza pro resto da vida
G7
%
C
%
G7
Que semelhana Entre o nosso fadrio S que eu fiz ao contrrio
%
C %
G7
%
C
Do que o Joo de Barro fez
Nosso senhor Me deu foras nessa hora
%
G7
%
C
E a ingrata eu pus pra fora Por onde anda eu no sei
Para terminar
C % G7 % C Am G7 % C %
81
Aprenda Viola Caipira - Violeiro Cristiano Scuciatto - Material Desenvolvido para fins didticos

Prof. Cristiano Scuciatto


(19) 9105-9159
http://aprendaviolacaipira.blogspot.com.br/
cristianomusicas31@gmail.com

82
Aprenda Viola Caipira - Violeiro Cristiano Scuciatto - Material Desenvolvido para fins didticos

Filho Adotivo (Srgio Reis)


Tom: D Ritmo: Toada
D D7
G
A7

Bm

Em

A7

D%

1|-------------------------------------------------------------------------------|
2|-------------------------------------------------------------------------------|
3|0---1---3---5----8-8--7-7---5-53-3------5-53-3---1-1-----5-5--3-31-1---0-0--|
4|0---2---4---5----9-9--7-7---5-5-4-4------5-5-4-4---2-2-----5-5--4-4-2-2---0-0--|
5|-------------------------------------------------------------------------------|

D
Em
D
A7
D
Com sacrifcio eu criei meus sete filhos Do meu sangue eram seis
Bm
Em %
E um peguei com quase um ms
%
B7
Em
Fui viajante, fui roceiro, fui andante
%
A7
%
D A7
E pra alimentar meus filhos No comi pra mais de vez
D
Em
D
Sete crianas, sete bocas inocentes
A7
D
Bm
Em %
Muito pobres mas contentes No deixei nada faltar
%
B7
Em
Foram crescendo, foi ficando mais difcil
%
A7
%
D A7
Trabalhei de sol a sol Mas eles tinham que estudar
D
Em
D
Meu sofrimento, ah!, meu Deus valeu a pena
A7
D
Bm
Em %
Quantas lgrimas chorei, mas tudo Foi com muito amor
%
B7
Em
Sete diplomas, sendo Seis muito importantes
%
A7
%
D D7
Que a custa de uma enxada Conseguiram ser doutor
G
A7
D
Hoje estou velho, meus cabelos branqueados
Bm
Em
A7
D D7
O meu corpo est surrado Minhas mos nem mexem mais
G
A7
D
Uso bengala, sei que dou muito trabalho
Bm
Em
A7
D D7 (Solo Introduo)
Sei que s vezes atrapalho Meus filhos at demais
%
Em
D
Passou o tempo e eu fiquei muito doente
A7
D
Bm
Em %
Hoje vivo num asilo E s um filho vem me ver
83
Aprenda Viola Caipira - Violeiro Cristiano Scuciatto - Material Desenvolvido para fins didticos

%
B7
Em
Esse meu filho, coitadinho Muito honesto
%
A7
%
D A7
Vive apenas do trabalho Que arranjou para viver
D
Em
D
Mas Deus grande vai Ouvir minhas preces
A7
D
Bm
Em %
Esse meu filho querido Vai vencer, eu sei que vai
%
B7
Em
Faz muito tempo que No vejo os outros filhos
%
A7
%
D A7
Sei que eles esto bem No precisam mais do pai
D
Em
D
Um belo dia, me sentindo abandonado
A7
D
Bm
Em %
Ouvi uma voz bem do meu lado Pai eu vim pra te buscar
%
B7
Em
Arrume as malas Vem comigo pois venci
%
A7
%
D D7
Comprei casa e tenho esposa E o seu neto vai chegar
G
A7
D
De alegria eu chorei e olhei pro cu
Bm
Em
A7
D D7
Obrigado meu Senhor a recompensa j chegou
G
A7
D
Meu Deus proteja os meus seis filhos queridos
Bm
Em
A7
D
Mas foi meu filho adotivo Que a este velho amparou

84
Aprenda Viola Caipira - Violeiro Cristiano Scuciatto - Material Desenvolvido para fins didticos

Cio da Terra Joo Carreiro e Capataz


Cio da terra 1976 Msica e letra Milton Nascimento e Chico Buarque de Hollanda
Gravado por Pena Branca & Xavantinho E Joao Carreiro & Capataz

Declamao
a nossa voz
Duetada com o som desse divino instrumento
Casados com a melodia do nosso desejo e do nosso sentimento
Ecoe dentro de cada corao levando o sabor da verdadeira, doce e pura poesia
De uma sonoridade singela
Mas que emociona e contagia
Som esse que nasceu l do interior
veio l do campo
l da roa
Veio para falar e defender, mas s das coisas que nossa
Nos no tem nada contra as moda l dos exterior
Mas nos no troca o som da nossa viola caipira
Por um som de guitarra do rock and roll
Prefiro mil vezes nossos causos nossas prosas
As Nossas modas de caador
O nosso jeito simples e bonito
Que s a gente tem de falar de amor
Pra que melhor que isso
Viola violo uma pinguinha pura um cigarrinho de palha
E dois cantador bom
Claro que tudo isso
Com Deus na proteo
Sem pisar em ningum
A gente luta para defender
E no que depender da gente
A cultura nunca vai morrer

INTRODUO ( D G A7 G ) Repete
Harmnico Casa 12
Debulhar o trigo...
Recolher cada bago do trigo
D
G A7
Forjar no trigo o milagre do po
G
D
E se fartar de po...
G
Eh

A7 G
Eh Eh

D
Eh

G
Eh

A7
Eh

G D
Eh Eh

85
Aprenda Viola Caipira - Violeiro Cristiano Scuciatto - Material Desenvolvido para fins didticos

Harmnica Casa 12
Decepar a cana,
Recolher a garapa da cana
D
G A7
Roubar da cana a doura do mel
G
D
Se lambuzar de mel...
G
A7 G D
G
A7 G D
Eh Eh Eh Eh
Eh Eh Eh Eh
Modulou para E
E
Afagar a terra...
A
Conhecer os desejos da terra
E
A B
Cio da terra, a propcia estao
A
E
E fecundar o cho...
A
B A E
A
B
Eh Eh Eh Eh
Eh Ehhh
E
E fecundar o cho...

86
Aprenda Viola Caipira - Violeiro Cristiano Scuciatto - Material Desenvolvido para fins didticos

Boiadeiro Errante Teddy Vieira -Tom: A - Cebolo R


INTRODUO E/D/A/A/E/E/A
A
E
D
A
1|----------------------------------------|
2|---------9--7-------7--5--------5-4-4---|
3|-----7-----------5-----------3----------|
4|---7----------6-----------4-------------|
5|----------------------------------------|
E
A
1|----------------------------------------|
2|---4-5-6-7-7-5-5-4-4-2-2-0--------------|
3|----------------------------------------|
4|----------------------------------------|
5|----------------------------------------|

A
E
A
Eu venho vindo de uma querncia distante
E
A
E
Sou um boiadeiro errante que nasceu naquela serra
D
E
O meu cavalo corre mais que o pensamento
D
E
A
Ele vem no passo lento porque ningum me espera
E
A
Tocando a boiada au-u-u- boi eu vou cortando estrada u boi
E
A
Tocando a boiada au-u-u- boi eu vou cortando estrada
INTRODUO E/D/A/A/E/E/A
A
E
A
Toque o berrante com capricho Z Vicente
E
A
E
Mostre para essa gente o clarim das alterosas
D
E
Pegue no lao no se entregue companheiro
D
E
A
Chame o cachorro campeiro que essa rez perigosa
E
A
Olhe na janela au u u boi que linda donzela u boi
87
Aprenda Viola Caipira - Violeiro Cristiano Scuciatto - Material Desenvolvido para fins didticos

E
A
Olhe na janela au u u boi que linda donzela
INTRODUO E/D/A/A/E/E/A
A
E
A
Sou boiadeiro minha gente o que que h
E
A
E
Deixe o meu gado passar vou cumprir com a minha sina
D
E
L na baixada quero ouvir a siriema
D
E
A
Pr lembrar de uma pequena que eu deixei l em Minas
E
A
Ela culpada au u u boi de eu viver nas estradas u boi
E
A
Ela culpada au u u boi de eu viver nas estradas
INTRODUO E/D/A/A/E/E/A
A
E
A
O rio t calmo e a boiada vai nadando
E
A
E
Veja aquele boi berrando Chico Bento corre l
D
E
Lace o mestio salve ele das piranhas
D
E
A
Tire o gado da campana pra viagem continuar
E
A
Com destino a Gois au u u boi deixei Minas Gerais u boi
E
A
Com destino a Gois au u u boi deixei Minas Gerais u boi

88
Aprenda Viola Caipira - Violeiro Cristiano Scuciatto - Material Desenvolvido para fins didticos

Boiadeiro Errante
(Tom Sol CAPOTRASTE CASA 02)
Teddy Vieira -Tom: A - Cebolo R
INTRODUO D/C/G/G/D/D/G
G
D
G
Eu venho vindo de uma querncia distante
D
G
D
Sou um boiadeiro errante que nasceu naquela serra
C
D
O meu cavalo corre mais que o pensamento
C
D
G
Ele vem no passo lento porque ningum me espera
D
G
Tocando a boiada au-u-u- boi eu vou cortando estrada u boi
D
G
Tocando a boiada au-u-u- boi eu vou cortando estrada
INTRODUO D/C/G/G/D/D/G
G
D
G
Toque o berrante com capricho Z Vicente
D
G
D
Mostre para essa gente o clarim das alterosas
C
D
Pegue no lao no se entregue companheiro
C
D
G
Chame o cachorro campeiro que essa rez perigosa
D
G
Olhe na janela au u u boi que linda donzela u boi

D
G
Olhe na janela au u u boi que linda donzela
INTRODUO D/C/G/G/D/D/G
A
E
A
Sou boiadeiro minha gente o que que h
89
Aprenda Viola Caipira - Violeiro Cristiano Scuciatto - Material Desenvolvido para fins didticos

D
G
D
Deixe o meu gado passar vou cumprir com a minha sina
C
D
L na baixada quero ouvir a siriema
C
D
G
Pr lembrar de uma pequena que eu deixei l em Minas
D
G
Ela culpada au u u boi de eu viver nas estradas u boi
D
G
Ela culpada au u u boi de eu viver nas estradas
INTRODUO D/C/G/G/D/D/G
G
D
G
O rio t calmo e a boiada vai nadando
D
G
D
Veja aquele boi berrando Chico Bento corre l
C
D
Lace o mestio salve ele das piranhas
C
D
G
Tire o gado da campana pra viagem continuar
D
G
Com destino a Gois au u u boi deixei Minas Gerais u boi
D
G
Com destino a Gois au u u boi deixei Minas Gerais u boi

90
Aprenda Viola Caipira - Violeiro Cristiano Scuciatto - Material Desenvolvido para fins didticos

Sete Palavras Pedro Bento e Z da estrada


Compositor Luizinho Rosa Introduo: G C D7 G
G
C
Deus amou tanto este mundo, O mundo no correspondeu,
D7
G
Ento Deus mandou os profetas, Mas ningum obedeceu,
G
C
Deus mandou seu prprio filho, Mas ningum no conheceu,
G
D7
G\D7\G
Quando ele perambulou, Teve porta que fechou na hora que ele bateu.
G
C
Pra salvar a humanidade, O nosso Senhor nasceu,
D7
G
33 anos de idade, Neste mundo ele viveu,
G
C
Deus de infinita bondade, Do mundo compadeceu,
G
D7
Ele deu a prpria vida, Pra juntar a ovelha querida
G
D7-G
Que do rebanho se perdeu.
G----------------------------------------------------------------------C-------------Na hora da santa ceia, Lavou os ps dos discpulos seus,
D7
G
Em seguida ele falou, Vocs faam como eu,
G
C
Vou pra casa de meu pai, Da onde a gente desceu,
G
D7
G \D7\G
Um de vs vai me trair At Pedro vai fingir que nunca me conheceu.
G
C
Levantou os olhos pro cu, Pegou o po e orou,
D7
G
Esse po o meu corpo, Cada discpulo comeu,
G
C
Esse vinho o meu sangue, Cada discpulo bebeu,
G
D7
GD7-G
Judas atirou no cho, Aquele pedao de po Saiu da mesa e correu.
91
Aprenda Viola Caipira - Violeiro Cristiano Scuciatto - Material Desenvolvido para fins didticos

G
C
30 moedas de prata. Foi o quanto recebeu,
D7
G
No horto da oliveiras, Levou soldado e prendeu,
G
C
Jesus preso e amarrado, Calado permaneceu,
G
D7
G\D7\G
Depois de tanto maltrato, J gritaram a Pilatos, Crucifique o Galileu.
G
C
Na hora da sua morte, A terra empalideceu,
D7
G
Trovejou de sul a norte, Judia toda tremeu,
G
C
O vu do templo rasgou, Pilatos se arrependeu,
G
D7
Um sorria outro chorava, Jesus disse essas palavras
G \D7\G
Que na cruz ele morreu:
G
C
Pai perdoa-os. Eles no sabem o que esto fazendo,
G
Pai, em tuas mos. Entrego meu esprito,
D7
GD7-G
Tudo est consumado, Tudo est consumado.

Prof. Cristiano Scuciatto


(19) 9105-9159 cristianomusicas31@gmail.com
http://aprendaviolacaipira.blogspot.com.br/

92
Aprenda Viola Caipira - Violeiro Cristiano Scuciatto - Material Desenvolvido para fins didticos

A Caneta e a Enxada Zico e Zeca


Tom Sol (Compositores: Teddy Vieira \ Capito Barduino)

G D7 G D7 G
1|5-4-5-7-4----------------|-------------------------------5|
2|-----------5-------------|------7-5----------------------5|
3|--------------6----------|---5------6-5------------------5|
4|----------------7-4-0----|5--------------7-5-4-2-0-------5|
5|----------------------3-2|-------------------------3-2-0-5|

Certa vez uma caneta foi passear l no serto encontrou com uma
enxada, fazendo uma plantao. A enxada muito humilde foi lhe fazer
saudao, mas a caneta soberba no quis pegar na sua mo. e ainda
por desaforo lhe passou uma repreenso.
G
D7
G
Disse a caneta pra enxada no vem perto de mim, no
D7
G
Voc est suja de terra, de terra suja do cho
A7
D7
Sabe com quem est falando, veja sua posio
C
G
D7
G
E no esquea a distncia da nossa separao.
Riff. D7 G - D7 - G
G
D7
C
G
Eu Sou a caneta dourada que escreve nos tabelio
C
G
D7
G
Eu escrevo pros Governos a lei da Constituio
A7
D7
Escrevo em papel de linho, pros ricao e pros baro
C
G
D7
G
S ando na mo dos mestres, dos homens de posio.
Riff. D7 G - D7 - G
G
D7
C
G
A enxada respondeu: de fato eu vivo no cho,
93
Aprenda Viola Caipira - Violeiro Cristiano Scuciatto - Material Desenvolvido para fins didticos

C
G
D7
G
Pra poder dar o que comer e vestir o seu patro
A7
D7
Eu vim no mundo primeiro quase no tempo de Ado
C
G
D7
G
Se no fosse o meu sustento ningum tinha instruo.
Riff. D7 G - D7 - G
G
D7
C
G
Vai-te caneta orgulhosa, vergonha da gerao
C
G
D7
G
A sua alta nobreza no passa de pretenso
A7
D7
Voc diz que escreve tudo, tem uma coisa que no
C
G
D7
G
a palavra bonita que se chama... EDUCAO!

Prof. Cristiano Scuciatto


(19) 9105-9159 cristianomusicas31@gmail.com
http://aprendaviolacaipira.blogspot.com.br/

94
Aprenda Viola Caipira - Violeiro Cristiano Scuciatto - Material Desenvolvido para fins didticos

Couro de Boi Palmeira e Abi


Palmeira \ Teddy Vieira

Tom: G - (introduo 2x) ( C D G D G )


(declamado - sobre Introduo)
Conheo um velho ditado, que do tempo dos agis.
Diz que um pai trata dez filhos, dez filhos no trata um pai.
Sentindo o peso dos anos sem poder mais trabalhar,
o velho, peo estradeiro, com seu filho foi morar.
O rapaz era casado e a mulher deu de implicar.
"Voc manda o velho embora, se no quiser que eu v".
E o rapaz, de corao duro, com o velhinho foi falar:
G
D
G
Para o senhor se mudar, meu pai eu vim lhe pedir
G
D
G G7
Hoje aqui da minha casa o senhor tem que sair
C
G
Leve este couro de boi que eu acabei de curtir
D
G
Pra lhe servir de coberta aonde o senhor dormir
(CDGDG)
G
D
G
O pobre velho, calado, pegou o couro e saiu
G
D
G G7
Seu neto de oito anos que aquela cena assistiu
C
G
Correu atrs do av, seu palet sacudiu
D
G
Metade daquele couro, chorando ele pediu
(CDGDG)
G
D
G
O velhinho, comovido, pra no ver o neto chorando.
G
D
G G7
Partiu o couro no meio e pro netinho foi dando
C
G
O menino chegou em casa, seu pai foi lhe perguntando.
95
Aprenda Viola Caipira - Violeiro Cristiano Scuciatto - Material Desenvolvido para fins didticos

D
G
Pra qu voc quer este couro que seu av ia levando
(CDGDG)
G
D
G
Disse o menino ao pai: um dia vou me casar
G
D
G G7
O senhor vai ficar velho e comigo vem morar
C
G
Pode ser que acontea de ns no se combinar
D
G
Essa metade do couro vai dar pro senhor levar

Prof. Cristiano Scuciatto


(19) 9105-9159 cristianomusicas31@gmail.com
http://aprendaviolacaipira.blogspot.com.br/

96
Aprenda Viola Caipira - Violeiro Cristiano Scuciatto - Material Desenvolvido para fins didticos

REPERTRIO DE CATERETS
Porta do Mundo Peo Carreiro e Z Paulo
Tom D Introduo: D / G / Gm /D /D7 / E / A7/ D/D

D
G
A7
O som da viola bateu no meu peito doeu meu irmo
G
D
Assim eu me fiz cantador sem nenhum professor, aprendi a lio.
D7
G
So coisas divinas do mundo que vem num segundo a sorte mudar
D
E
A7
Trazendo pra dentro da gente as coisas que a mente vai longe buscar
G
D
A7
D
Trazendo pra dentro da gente as coisas que a mente vai longe buscar
D
G
A7
Em versos se fala e canta o mal se espanta e a gente feliz
G
D
No mundo da rima e provas eu sempre dei provas das coisas que fiz
D7
G
Por muitos lugares passei, mas nunca pisei em falso no cho.
D
E
A7
Cantando interpreto a poesia levando alegria onde h solido
G
D
A7
D
Cantando interpreto a poesia levando alegria
onde h solido.
(Introduo) D / G / Gm /D /D7 / E / A7/ D / D
D
G
A7
O destino o meu calendrio o meu dicionrio a inspirao
G
D
A porta do mundo aberta minha alma desperta buscando a cano
D7
G
Com minha viola no peito meus versos so feitos pro mundo cantar
D
E
A7
a luta de um velho talento menino por dentro sem nunca cansar
G
D
F
A7
D
a luta de um velho talento menino por dentro
sem nunca cansar
97
Aprenda Viola Caipira - Violeiro Cristiano Scuciatto - Material Desenvolvido para fins didticos

1|4-5-7-7-7\10-10-10-10-9--9--9---8--8--8--810--8108-7h9p7-2|5-7-9-9-9\12-12-12-12-10-10-10--10-10-10-10---10--10-9----3|------------------------------------------------------------4|------------------------------------------------------------5|-------------------------------------------------------------

1|4-5-7-7-7-|-7h9-7h9-7-6-6-6-5-5-5-11-11-9---7-7-5-4---------------2|5-7-9-9-9-|-9---9---9-7-7-7-6-6-6-12-12-10--9-9-7-5---------------3|------------------------------------------------------------------4|------------------------------------------------------------------5|-------------------------------------------------------------------

Prof. Cristiano Scuciatto


(19) 9105-9159 cristianomusicas31@gmail.com
http://aprendaviolacaipira.blogspot.com.br/

98
Aprenda Viola Caipira - Violeiro Cristiano Scuciatto - Material Desenvolvido para fins didticos

Caminheiro - Sergio Reis


D
F#m
G
F#m
Caminheiro que ja vai indo Pro rumo da minha terra
G
F#m
D
Por favor faa parada Na casa branca da serra
D7
D
D7
D
Ali mora uma velhinha Chorando um filho seu
D7
G
D
Essa velha minha me E esse filho sou eu
G D
F#m G
D
Oi caminheiro, leva esse recado meu
F#m
G
F#m
Por favor diga pra me Zelar bem do que meu
G
F#m
D
Cuidar bem do meu cavalo Que o finado pai me deu
D7
D
D7
D
Do meu cachorro campeiro Meu galo ndio brigador
D7
G
D
Minha velha espingarda Meu violo chorador
G
D
F#m G
D
Oi caminheiro, me faa este favor
F#m
G
F#m
Caminheiro diga pra me Para no se preocupar
G
F#m
D
Se Deus quizer este ano Eu consigo me formar
D7
D
D7
D
Eu pegando meu diploma Vou trazer ela pra c
D7
G
D
Mas se eu for mal nos estudos Vou deixar tudo e volto pra l
G D
F#m G
D
Oi caminheiro, leva esse recado meu

99
Aprenda Viola Caipira - Violeiro Cristiano Scuciatto - Material Desenvolvido para fins didticos

1|--7-7-9-10-10-10-10-9-7-10-------14-14-12-12-10-10--9-9-7-7-5-5/7-7-----2|--9-9--9--9--9-9--9-9-9-9-------15-15-14-14-12-12-10-10-9-9-7-7/99-----3|---------------------------------------------------------------------------4|---------------------------------------------------------------------------5|---------------------------------------------------------------------------1|--14-12-14-14-12-10-12--9---12-11-9-7-7-5-7---7-4--7-2/4----7-4-7-2/4--2|--15-14-15-15-14-12-14-10----14-12-10-9-9-7-9-5-----5---3/5--5-----5-3/5--3|---------------------------------------------------------------------------4|---------------------------------------------------------------------------5|----------------------------------------------------------------------------

Prof. Cristiano Scuciatto


(19) 9105-9159 cristianomusicas31@gmail.com
http://aprendaviolacaipira.blogspot.com.br/

100
Aprenda Viola Caipira - Violeiro Cristiano Scuciatto - Material Desenvolvido para fins didticos

Avenida Boiadeira (Joaquim e Manuel)


Tom: C Ritmo: cateret
C
F

G7

1|----2--3--5--7----10--9--7-----------5----5/9----9---7--3---2-|
2|----3--4--7--8------------------10---7----7/10--10---8-4--3-|
3|--------------------------------------------------------------|
4|--------------------------------------------------------------|
5|--------------------------------------------------------------|

C
%
%
G7
Como em quase todas as cidades h uma avenida onde passa o gado
%
%
%
C
Em minha terra tambm existia uma avenida sobre o meu passado
%
%
C7
F
E foram tantas tardes de sol claro tantas e tantas nuvens de poeira
%
C
G7
C
Que esta avenida hoje traz meu nome depois de ser estrada boiadeira
G7
C
G7
C
Velha avenida onde deixei rastro de infncia que virou saudade
G7
C
G7
C
E hoje existe em cada esquina meu nome escrito para a eternidade
C F C G7 C
Solo da Introduo
C
%
%
G7
Foi a boiada longa do meu tempo a passo lento em silncio andando
%
%
%
C
Meu corao velho boiadeiro sabe que chega, mas no sabe quando
%
%
C7
F
Talvez quando as paineiras tenham aberto as suas flores perfumadas
%
C
G7
C
Igual a um dia a paineira velha serviu de sombra pra muitas boiadas
Velha avenida...
C
%
Se a dor se escreve em lpide de pedra
%
G7
Hoje encontrei em placas reluzentes
%
%
%
C
Meu nome escrito a brilhar porque esta homenagem recebi contente
101
Aprenda Viola Caipira - Violeiro Cristiano Scuciatto - Material Desenvolvido para fins didticos

%
%
C7
F
Foram quarenta anos de trabalho que felizmente esto reconhecidos
%
C
Quando os meus versos para o cu voarem
G7
C
Em minha terra algum os tenha lido
Velha avenida...

Prof. Cristiano Scuciatto


(19) 9105-9159 cristianomusicas31@gmail.com
http://aprendaviolacaipira.blogspot.com.br/

102
Aprenda Viola Caipira - Violeiro Cristiano Scuciatto - Material Desenvolvido para fins didticos

Cuitelinho (Pena Branca e Xavantinho)


Tom: A Ritmo: Cateret
A
E
D

|D E | A

1|-11--12---14---9----11--12---7---6-7-9---11-|-11--12-14---9--11--12---7-6-7-12-11|
2|-12--14---16--11----12--14---9---7-9-11--12-|-12--14-16--11--12--14---9-7-9-14-12|
3|--------------------------------------------|------------------------------------|
4|--------------------------------------------|------------------------------------|
5|--------------------------------------------|------------------------------------|

A
%
E%
Cheguei na beira do porto Onde as ondas se espia
A
%
E%
%%
As gara d meia volta E senta na beira da praia E o cuitelinho no gosta
A
|%|E
|D E | A
Que o boto de rosa caia, ai, ai, ai
A
%
E%
A quando eu vim de minha terra Despedi da parentaia
A
%
E %
%%
Eu entrei no Mato Grosso Dei em terras paraguaia L tinha revoluo
A
|%|E
|D E |
A
Enfrentei fortes bataia, ai, ai, ai
A
%
E%
A tua saudade corta Como ao de navaia
A
%
E %
%%
O corao fica aflito Bate uma, a outra faia
Os io se enche d`gua
A
|% |E |D E | A |% |E |D E | A
Que at a vista se atrapaia, ai, ai, ai
A
%
E%
A tua saudade corta Como ao de navaia
A
%
E%
%%
O corao fica aflito Bate uma, a outra faia Os io se enche d`gua
A
|% |E
|D E |
A|
Que at a vista se atrapaia, ai, ai, ai

103
Aprenda Viola Caipira - Violeiro Cristiano Scuciatto - Material Desenvolvido para fins didticos

Prof. Cristiano Scuciatto


(19) 9105-9159 cristianomusicas31@gmail.com
http://aprendaviolacaipira.blogspot.com.br/

104
Aprenda Viola Caipira - Violeiro Cristiano Scuciatto - Material Desenvolvido para fins didticos

Cuitelinho (Pena Branca e Xavantinho)


(Tom Sol Capotraste Casa 02)
Tom: A Ritmo: Cateret
A
E
D

|D E | A

1|-11--12---14---9----11--12---7---6-7-9---11-|-11--12-14---9--11--12---7-6-7-12-11|
2|-12--14---16--11----12--14---9---7-9-11--12-|-12--14-16--11--12--14---9-7-9-14-12|
3|--------------------------------------------|------------------------------------|
4|--------------------------------------------|------------------------------------|
5|--------------------------------------------|------------------------------------|

G
%
D%
Cheguei na beira do porto Onde as ondas se espia
G
%
D%
%%
As gara d meia volta E senta na beira da praia E o cuitelinho no gosta
G
|%|D
|C D | G
Que o boto de rosa caia, ai, ai, ai
G
%
D%
A quando eu vim de minha terra Despedi da parentaia
G
%
D %
%%
Eu entrei no Mato Grosso Dei em terras paraguaia L tinha revoluo
G
|%|D
|C D |
G
Enfrentei fortes bataia, ai, ai, ai
G
%
D%
A tua saudade corta Como ao de navaia
G
%
D %
%%
O corao fica aflito Bate uma, a outra faia
Os io se enche d`gua
G
|% |D |C D | G |% |D |C D | G
Que at a vista se atrapaia, ai, ai, ai
G
%
D%
A tua saudade corta Como ao de navaia
G
%
D%
%%
O corao fica aflito Bate uma, a outra faia Os io se enche d`gua
G
|% |D
|C D |
G|
Que at a vista se atrapaia, ai, ai, ai

105
Aprenda Viola Caipira - Violeiro Cristiano Scuciatto - Material Desenvolvido para fins didticos

Prof. Cristiano Scuciatto


(19) 9105-9159 cristianomusicas31@gmail.com
http://aprendaviolacaipira.blogspot.com.br/

106
Aprenda Viola Caipira - Violeiro Cristiano Scuciatto - Material Desenvolvido para fins didticos

Saco de Ouro (Mococa e Paraso)


Paraso/Jos Caetano Erba
Tom: D Ritmo: Cateret
D
D7

|D

A7 | D

1|7-7--9-10-10-10-10-14--12---9---12-11-9--7-------5--5--4|
2|9-9--10-12-12-12-1215--14--10---14-12-10-9-9-7---7-7--5|
3|------------------------------------------------8--------|
4|---------------------------------------------------------|
5|---------------------------------------------------------|

D
A7
Num saco de estopa com embira amarrado
%
D
Eu trago guardado a minha paixo
Bm
A7
%
D
Uma bota velha, chapu cor de ouro Bainha de couro e um velho faco
A7
D
Tenho um par de espora, Um arreio e um lao
A7
D
Um punhal de ao e rabo de tatu
D7
G
D
Tenho uma guaiaca ainda perfeita
| D A7
| D | D7 | G | D A7 |
Caprichada e feita s de couro cru
D
A7
Do lampio quebrado, s resta o pavio
%
D
Pra lembrar do frio Eu tambm guardei
Bm
A7
%
D
Um pelego branco que perdeu o pelo Apesar do zelo com que eu cuidei
A7
D
Tambm o cachimbo de cano Colombo
A7
D
Quantos pernilongos com ele espantei
D7
G
Um estribo esquerdo, que guardei com jeito Porque o
| D
A7
| D | D7 | G | D A7 | D
direito na cerca eu quebrei
D
A7
%
D
A nota fiscal j toda amarela Da primeira sela que eu mesmo comprei
107
Aprenda Viola Caipira - Violeiro Cristiano Scuciatto - Material Desenvolvido para fins didticos

Bm
A7
%
D
L em soledade na Casa da Cinta Duzentos e trinta, na hora paguei
A7
D
A7
D
Tambm o recibo j todo amassado Primeiro ordenado que eu faturei
D7
G
a minha traia num saco amarrado Num canto
|D
A7
| D | D7 | G | D A7 | D
escostado, que eu sempre guardei
D
A7
Pra mim representa um belo passado
%
D
A lida de gado que eu sempre gostei
Bm
A7
%
D
Assim enfrentando esse trabalho duro E fiz meu futuro sem violar a lei
A7
D
O saco relquia com meus apetrechos
A7
D
No vendo e no deixo ningum pr a mo
D7
G
Nos trancos da vida aguentei o taco
|D
A7
| D | D7 | G | D A7 | D
E o ouro do saco a recordao

108
Aprenda Viola Caipira - Violeiro Cristiano Scuciatto - Material Desenvolvido para fins didticos

Tristeza do Jeca (Tonico e Tinoco) Sol Maior


Compositor: Angelino de Oliveira - Tom: G Ritmo: Cateret
C
%
G
E7
Am
D7 G %
1|------------------------------------------------------|
2|------------------------------------------------------|
3|10-12-13-13-12-10-8-8-10-12-12-10-8-6-10-10-8-8-6-6-5-|
4|10-12-14-14-12-10-9-9-10-12-12-10-9-7-10-10-9-9-7-7-5-|
5|------------------------------------------------------|

G
C
G
D7
G%
Nestes versos to singelos Minha bela Meu amor
%
C
G
D7
G G7
Pra voc quero cantar o meu sofrer E a minha dor
C
%
G
E
Am
Eu sou igual o sabi Quando canta s tristeza
D7
G%
Desde galho onde ele est
D7
%
%
G%
Nesta viola eu canto e gemo de verdade
D7
%
%
G%
Cada toada representa uma saudade
G
C
G
D7
G%
Eu nasci naquela serra Num ranchinho beira cho
%
C
G
D7
G G7
Todo cheio de buraco Onde a lua faz claro
C
%
G
E7
Am
Quando chega a madrugada L no mato a passarada
D7
G%
Principia um barulho
Nesta viola...
G

D7

G %% C

D7

G G7

1|------------------------------------------------------------------------------|
2|------------------------------------------------------------------------------|
3|8-8-10-10--8-6-6-5-5-3-6-6-6-5-8-----8-8--10-10-8-6-6-5-5-3-6-6-6-5-8----5-6-8|
4|9-9-10-10--9-7-7-5-5-4-7-7-7-5-9-----9-9--10-10-9-7-7-5-5-4-7-7-7-5-9----5-7-9|
5|------------------------------------------------------------------------------|

C %
G
E7
Am
O choro que vai caindo Devagar vai se sumindo
D7
G
Como as guas vo por mar
109
Aprenda Viola Caipira - Violeiro Cristiano Scuciatto - Material Desenvolvido para fins didticos

Prof. Cristiano Scuciatto


(19) 9105-9159 cristianomusicas31@gmail.com
http://aprendaviolacaipira.blogspot.com.br/

110
Aprenda Viola Caipira - Violeiro Cristiano Scuciatto - Material Desenvolvido para fins didticos

Tristeza do Jeca - R Maior


Compositor: Angelino de Oliveira - Tom: D
Intro: G \ G F#m Bm Em A7 D A7
D
G
D
A7
D
Nestes versos to singelos Minha bela, meu amor
D
G
D
A7
D D7
Pra voc quero contar O meu sofrer e a minha dor
G
F#m
Eu sou como o sabi
Bm
Em
A7
D
Quando canta s tristeza Desde o galho onde ele est
A7
D
Nesta viola eu canto e gemo de verdade
A7
D
Cada toada representa uma saudade
Solo:

(D A7 Bm)

(D A7 Bm)

D
G
D
A7
D
Eu nasci naquela serra Num ranchinho beira cho
D
G
D
A7
D
D7
Tudo cheio de buraco onde a lua faz claro
G
F#m
Quando chega a madrugada
Bm
Em
A7
D
L no mato a passarada Principia um barulho

(D A7 Bm)

Nesta viola...
D
G
D
A7
D
L no mato tudo triste desde o jeito de falar,
D
G
D
A7
D D7
Pois o jeca quando canta tem vontade de chorar
G
F#m
E o choro que vai caindo
Bm
Em
A7
D
Devagar vai se sumindo, como as guas vo pro mar
111
Aprenda Viola Caipira - Violeiro Cristiano Scuciatto - Material Desenvolvido para fins didticos

(D A7 Bm)

Nesta viola...

Tristeza do Jeca Solo Facilitado


1-D|-----------------------------------------------2-A|--0-0-2-2-0-------------------0----------------3-F#|-0-0-1-1-0-1-0-0-0---1-1-1-0-0----------------4-E|------------2-0-0-0-2-2-2-2-0------------------5-A|--------------------4--------------------------D------------------------------------------------A------------------------------------------------F#-5-7-8-8-7-5-5-3-3-3-5-7-7-5-3-1-1-5-5--3-3-1-1-0
D--5-7-9-9-7-5-5-4-4-4-5-7-7-5-4-2-2-5-5--4-4-2-2-0
A------------------------------------------------D---------------------------------------------A---------------------------------------------F#---0-1-1-5-5-3-3-1-1-0----------------------D-2--0-2-2-5-5-4-4-2-2-0----------------------A-4-------------------------------------------CAPOTRASTE
A DUPLA TONICO E TINOCO CANTA ESTA MUSICAL EM SOL CAPOTRASTE NA 5 CASA
A DUPLA ZEZE DE CAMARGO E LUCIANO CANTA ESTA MUSICA EM SOL # USAR O CAPOTRASTE NA 6 CASA
A DUPLA ZEZE DE CAMARGO E LUCIANO CANTA ESTA MUSICA EM SOL USAR O CAPOTRASTE NA 5 CASA
A DUPLA CHITOZINHO E XOROR CANTA ESTA MUSICA EM L USAR O CAPOTRASTE NA 7 CASA
A CANTORA PAULA FERNANDES CANTA ESTA MUSICA EM MI USAR O CAPOTRASTE NA 2 CASA

112
Aprenda Viola Caipira - Violeiro Cristiano Scuciatto - Material Desenvolvido para fins didticos

A Mo do Tempo Tio Carreiro e Pardinho


Tom: B Introduo: F# \ B (Cebolo R)
1-12-12-12--11-11-12---9--9--9-8-8--9--5-5-5-6-7-------------------------------------2-14-14-14--13-13-14--10-10-10-9-9-10--7-7-7-8-9-------------------------------------3------------------------------------------------------------------------------------4------------------------------------------------7-7-7-6-6-7-4-4-4-4-4-5-2-0--5------------------------------------------------9-9-9-8-8-9-5-5-5-5-5-7-3-2-0-2-3-4-5-2-0

F# B
F#
A solido do meu peito O meu corao reclama
F#
B
Por amar quem est distante E viver com quem no ama
B
E
F#
Eu sei que voc tambm Da mesma sina se queixa
F#
B
/F#/B/F#/B/F#/B
Querendo viver comigo Mas o destino no deixa
B
F#
Que bom se a gente pudesse Arrancar do pensamento
F#
B
E sepultar a saudade Na noite do esquecimento
B
E
F#
Mas a sombra da lembrana igual a sombra da gente
F#
B
/F#/B/F#/B/F#/B
Pelos caminhos da vida Ela esta sempre presente
B
F#
Vai lembrana e no me faa Querer um amor impossvel
F#
B
Se o lembrar nos faz sofrer Esquecer prefervel
B
E
F#
O que adianta querer bem Algum que j foi embora
F#
B
/F#/B/F#/B/F#/B
como amar uma estrela que foge ao romper da aurora

113
Aprenda Viola Caipira - Violeiro Cristiano Scuciatto - Material Desenvolvido para fins didticos

B
F#
Arranque da nossa mente horas distantes vividas
F#
B
Longas estradas que um dia Foram por ns percorridas
B
E
F#
Apague com a mo do tempo os nossos rastros deixados
F#
B
/F#/B
Como flores que secaram Do cho do nosso passado

Prof. Cristiano Scuciatto (19) 9105-9159


http://aprendaviolacaipira.blogspot.com.br/
cristianomusicas31@gmail.com

114
Aprenda Viola Caipira - Violeiro Cristiano Scuciatto - Material Desenvolvido para fins didticos

Pai Joo Tio Carreiro e Pardinho


Introduo: D7\G\D7\G\D7\G\D7\G\D7\G

G
C
D
G
Caminheiro que passar naquela estrada
C
D
G
G7
V uma cruz abandonada como quem vai pro serto
C
D
G
H muito anos neste cho foi sepultado um preto velho
A7
D
G (Solo da Introduo)
e erado por nome de Pai Joo
--------G
C
D
G-----------------------------------------------------Pai Joo na fazenda dos coqueiros
C D
G
G7
Foi destemido carreiro querido do seu patro...
C
D
G
Sua boiada o chibante e o brioso
A7
D
G (Solo da Introduo)
nos morros mais perigoso arrastava o carreto
----------G
C
D G -------------------------------------------------Numa tarde pai Joo no esperava
C D
G
G7
Que a morte lhe rondava l na curva do areio
C
D
G
E numa queda embaixo do carro caiu do mundo
A7
D
G (Solo da Introduo)
se despediu preto vio pai Joo
-------- G
C
D
G --------------------------------------------------Caminheiro aquela cruz do caminho
C D
G
G7
J contei tudo certinho a histria de pai Joo
C
D
G
Resta a saudade daquele tempo que foi
A7
D
G A D G
o velho carro de boi no fundo do mangueiro

115
Aprenda Viola Caipira - Violeiro Cristiano Scuciatto - Material Desenvolvido para fins didticos

1|0-2-3-4-7-4-2-5-0-----0-2---------0---|
2|------------------2-3-----3-0-2-3---2-|
3|--------------------------------------|
4|--------------------------------------|
5|--------------------------------------|
1|----------------------------------------|
2|----------------------------------------|
3|---------3---------------------------3-1|
4|-0-2-3-4---4-2-5-0------0-2---0-2-4-----|
5|--------------------2-3-----3-----------|

116
Aprenda Viola Caipira - Violeiro Cristiano Scuciatto - Material Desenvolvido para fins didticos

PAGODES CAIPIRAS
Pagode Caipira
1

6
P

0
0
0
2
4

0
0
1
2
0

0
0
0
2
4

0
0
0
4
5

0
0
0
2
4

0
0
1
2
0

0
0
0
0
0

117
Aprenda Viola Caipira - Violeiro Cristiano Scuciatto - Material Desenvolvido para fins didticos

Pagode Caipira + Complexo Pagode de Braslia


1

0
0
0
2h4
0

0
0
1p0
2p0
0

0
0
0
2h4
0

0
0
0
4p0
0

0
0
0
2h4
0

0
0
1p0
2p0
0

0
0
0
0
0

118
Aprenda Viola Caipira - Violeiro Cristiano Scuciatto - Material Desenvolvido para fins didticos

Pagode em Braslia Teddy Vieira /Lourival dos Santos


Tom D Cebolo R Introduo: A7\D\ A7\D\ A7\D\ A7\D\ A7\D\

D
A7
Quem tem mulher que namora, quem tem burro empacador
D A7 D
Que tem a roa no mato me chame que jeito eu dou
D7
G
GDG
Eu tiro a roa do mato, sua lavoura melhora
A7
D
E o burro empacador eu corto ele na espora
A7
D
A7 D
E a mulher namoradeira eu passo o couro e mando embora
(Estribilho) A7\D\ A7\D\ A7\D\ A7\D\ A7\D\ A7\D\
A7
Tem prisioneiro inocente no fundo de uma priso
D
Tem muita sogra encrenqueira e tem violeiro embrulho
D7
G
GDG
Pros prisioneiro inocente eu arranjo advogado
A7
D
E a sogra encrenqueira eu do de lao dobrado
A7
D
E os violeiro embrulho com meus versos esto quebrado

A7 D

A7 D

(Estribilho) A7\D\ A7\D\ A7\D\ A7\D\ A7\D\ A7\D\


A7
Bahia deu Rui Barbosa, Rio Grande deu Getlio
D
Em minas deu Juscelino de So Paulo eu me orgulho
D7
G
Baiano no nasce burro, gacho o rei das conchilhas
A7
D
Paulista ningum contesta o brasileiro que brilha
A7
D
A7 D
Quero ver cabra de peito pra fazer outra Braslia

A7 D
GDG

119
Aprenda Viola Caipira - Violeiro Cristiano Scuciatto - Material Desenvolvido para fins didticos

(Estribilho) A7\D\ A7\D\ A7\D\ A7\D\ A7\D\ A7\D\


No estado de Gois meu pagode est mandando
No bazar do Valdomiro em Braslia o Soberano
No repique da viola balancei o cho goiano
Vou fazer a retirada e despedir dos paulistanos
Adeus que eu j vou me embora que Gois t me chamando.
ESTRIBILHO DO PAGODE DE BRASLIA

1|-----11----------2--------5----------4---------7---------|
2|---0-12p0------0-4p0----0-7p0------0-5p0-----0-9p0-------|
3|---------------------------------------------------------|
4|---------------------------------------------------------|
5|-0----------0---------0---------0---------0----------0---|
HARM
1|-----2---------5--------4----------7--------9--------11---------12|
2|---0-4p0-----0-7p0----0-5p0------0-9p0----0-10p0---0-12p0----0--12|
3|----------------------------------------------------------------12|
4|----------------------------------------------------------------12|
5|-0--------0---------0--------0----------0--------0---------0----12|

RITMO PAGODE CAIPIRA

Prof. Cristiano Scuciatto


(19) 9105-9159
http://aprendaviolacaipira.blogspot.com.br/
cristianomusicas31@gmail.com

120
Aprenda Viola Caipira - Violeiro Cristiano Scuciatto - Material Desenvolvido para fins didticos

Nove e Nove Tio Carreiro e Pardinho


Compositor: Tio Carreiro - Tom D - Cebolo em R - Introduo: D

A7
Para frente e para o alto eu nunca posso parar, Comigo no nove e
nove, nove e nove eu vou contar; Meus versos tem nove e nove, nem um
nove vai faltar
D
E A7
Eu vou dar o resultado que os nove e nove d!

A7
Eu nasci no dia nove, nove horas fui pago, Nove padre e nove igreja,
nove vezes fui cristo; Eu entrei em nove escola, e aprendi nove lio,
D
E A7
Eu ganhei nove medalhas, quebrei nove campeo!

A7
Nove baiano valente junta nove valentia, Nove susto, nove choro,
correndo nove famlia, Nove baiano pulando, contra nove ferro fria
D
E A7
Nove faco t tinindo, nove bainha vazia!

A7
Entrei em nove pagode, topei nove valento, Nove tapa e nove tombo,
nove caboclo no cho; Nove processo correndo e trabalha nove escrivo,
D
E A7
Nove ordem de soltura, nove advogado bom!
A7
Tive nove namorada, nove vezes fui casado, Nove sogra e nove sogro,
nove lar abandonado; Quando foi no dia nove topei nove cabra armado,
D
E A7
Nove tiro eu dei pra cima, fiz correr nove cunhado!

121
Aprenda Viola Caipira - Violeiro Cristiano Scuciatto - Material Desenvolvido para fins didticos

INTRODUO

-110 Comece no -60

D|------|----------------------------|--------------------------|
A|------|----0--------0---------0----|-----0----------0---------|
F#|-----|----------------------------|--------------------------|
D|--2--4|5------5-4------2-5-2-------|--------2-----------------|
A|------|--0--------0-------------4-0|0-2-4------4-2-----4-2-0--|
REPETE 5x
1 FRASE
2 FRASE
D|------------------------------------|----------------------------|
A|-----------0---------0--------0-----|----------0--------0--------|
F#|-----------------------------------|----------------------------|
D|--2-4-5------5-4-------2-5-2--------|-2-4-5------5-4-------2-2---|
A|---------0--------0-------------4-0-|--------0---------0---------|
3 FRASE
4 FRASE
D|-------------------------------------|----------------------------|
A|-----------0---------0---------0-----|------0---------0-----------|
F#|------------------------------------|----------------------------|
D|--2-4-5------5-4-------2-5-2---------|--------2-------------------|
A|---------0--------0--------------4-0-|0-2-4------4-2-----4-2-0----|

RITMO PAGODE CAIPIRA

Prof. Cristiano Scuciatto


(19) 9105-9159
http://aprendaviolacaipira.blogspot.com.br/
cristianomusicas31@gmail.com

122
Aprenda Viola Caipira - Violeiro Cristiano Scuciatto - Material Desenvolvido para fins didticos

A Coisa T Feia Tio Carreiro e Pardinho


Tom: D (intro) D A7 D (solo da viola)

1|-------------------------------------------------------------------2|---0---------------0------------------------0----------0------0-----3|---------------------3-------------1-0----------------------7-------8
4|-----------0-2-3-4-----4-0---0-1-2------2------2/7-7-7-7-9-----97-5|-0----2-4------------------4--------------0------------------------1|--7--7--7-----------------------7\12----12--7--7-5---5--12h
2|--9--9--9----9-9----------------9\14----14--9--9-7---7--12h
3|-------------8-8-------8-7------------------------------12h
4|-----------------------8-7------------------------------12h
5|0----------0---------0-------0--------0------0-----0----12h

D
Burro que fugiu do lao t debaixo da roseta
Quem fugiu de canivete foi topar com baioneta
G
A7
J est no cabo da enxada quem pegava na caneta
Quem tinha mozinha fina foi pegar na picareta
D
A7
D
J tem doutor na pedreira dando duro na marreta!
E
A7
A coisa t feia,......a coisa t preta
D
A7
D
Que no for filho de Deus, t na unha do capeta!
(solo da viola)
D
Criana na mamadeira j esta fazendo carreta
At o leite das crianas virou droga na chupeta
G
A7
J est pagando o pato at filho de proveta
Mundo velho uma bomba girando neste planeta,
D
A7
D
Qualquer dia a bomba estoura, s relar na espoleta!

A coisa t feia...
(solo de viola)

123
Aprenda Viola Caipira - Violeiro Cristiano Scuciatto - Material Desenvolvido para fins didticos

D
Quem dava caixinha alta, j est cortando a gorjeta
J no ganha mais esmola nem quem anda de muleta,
G
A7
Faz mudana na carroa quem fazia na carreta
Colrio de dedo duro pimenta malagueta
D
A7
D
Sopa de caco de vidro, banquete de cagueta!
A coisa t feia...
(solo da viola)
D
Quem foi o rei do baralho virou trouxa na roleta
Gavio que pegava cobra, j foge de borboleta,
G
A7
Se o Picao fosse vivo ia pintar tabuleta
Bezerrada de gravata, que se cuide, no se meta,
D
A7
D
Quem mamava no governo, agora secou a teta!
A coisa t feia...
RITMO PAGODE CAIPIRA
1

Prof. Cristiano Scuciatto


(19) 9105-9159 cristianomusicas31@gmail.com
http://aprendaviolacaipira.blogspot.com.br/
124
Aprenda Viola Caipira - Violeiro Cristiano Scuciatto - Material Desenvolvido para fins didticos

PAGODE DO ALA Tio Carreiro e Pardinho


Carreirinho e Oscar Tirola
Tom: D - Intro: A7 D A7 D G D A7 D A7 D
D7
G D7 G
A7
D
As flores quando de manha cedo, com seu perfume no ar, exala
A7
D
A madeira quando est bem seca, Deixando no sol bem quente, estala
A7
Dois baianos brigando de faco Sai fogo quando o ao, resvala
D
D7 G
D
A7
D A7 D
Os namoro de antigamente, Espiava por um buraco na sala

D7
G D7 G
A7
D
As pessoas que so muda e surda, por meio de sinal que fala
A7
D
Os gr-finos de antigamente, Quase que todos usavam bengala
A7
A mochila do peo um saco, A coberta do peo o pala
D
D7
G
D
A7 D A7 D
Os casamentos da roa tem festa, Ocasio que o pobre se arregala

( A7 D A7 D G D A7 D A7 D )
D7
G D7 G
A7
D
Preste ateno que o reio doe mais, aonde ele pega a tala
A7
D
Divisa de terra antigamente, No usava cerca era vala
A7
Naturalmente um bom jogador, jogo ele est na escala
D
D7
G
D7
A7
D A7 D
Uma flor diferente da outra, Pro cuitelo seu valor iguala

125
Aprenda Viola Caipira - Violeiro Cristiano Scuciatto - Material Desenvolvido para fins didticos

D7
G D7 G
A7
D
Caipira pode estar bem vestido, Ele no entra em baile de gala
A7
E
Pra carregar o fuzil tem pente, Garrucha e o revolver tem bala
A7
O valento est arrastando a asa, Mais quando v a polcia cala
D
D7 G
D
A7
D A7 E
Despista e sai devagarinho, Quando quebra a esquina e abre ala
( A7 D A7 D G D A7 D A7 D )
D7
G D7 G
A7
D
Pra fazer viagem a bagagem, Geralmente o que se usa mala
A7
D
A baiana pra fazer cocada Primeiramente o coco se rala
A7
No papel o turco faz rabisco E diz que escreveu Abdala
D
D7
G
D
A7
D
As pessoas que morrem na estrada, Por respeito uma cruz assinala

RITMO PAGODE CAIPIRA

Prof. Cristiano Scuciatto


(19) 9105-9159
http://aprendaviolacaipira.blogspot.com.br/
cristianomusicas31@gmail.com

126
Aprenda Viola Caipira - Violeiro Cristiano Scuciatto - Material Desenvolvido para fins didticos

PAGODE DO ALA Tio Carreiro e Pardinho


Carreirinho e Oscar Tirola
1|---------------------------------------------------|
2|---------0----------0--------0----------0----------|
3|---------------------------------------------------|
4|--0-----------2-4\5----5-4-0------4-5\7-----7------|
5|----4-0-----4------------------5-------------------|
1|---------------------------------------------------------|
2|------0-----------0------------------------0----------0--|
3|---------------------------------------------------------|
4|-5-0-------5-7\9-----9-7-4\11-11--11------------9-12----9|
5|--------7----------------5\12-12--12--10-0---10----------|
1|----------------------------------------------------------|
2|-----0--------0---------0---------0-------0---------0-----|
3|----------------------------------------------------------|
4|-7-0-----7-11----7-5-0-------5-9----5-4-0------4-7-----4--|
5|-------9------------------7------------------5------------|
1|-----------------------------------------------|
2|------0----------0-----------------------------|
3|-----------------------------------------------|
4|-2-0--------2-5-----2-0---0-0------------------|
5|---------4--------------0----------------------|

127
Aprenda Viola Caipira - Violeiro Cristiano Scuciatto - Material Desenvolvido para fins didticos

Chora Me Liga Joo Bosco e Vincius


Introduo: C G Am F - C G Am F
C
G
No era pra voc se apaixonar, Era s pra gente ficar
Am
F
C
Eu te avisei meu bem eu te avisei, Voc sabia que eu era assim
G
Am
F
Paixo de uma noite que logo tem fim, Eu te falei meu bem eu te falei
Dm
F
No vai ser to fcil assim, Voc me ter nas mos
C
G
Am
Logo voc que era acostumada, A brincar com outro corao
Dm
F
No venha me perguntar, Qual a melhor sada
Dm
F
G
Eu sofri muito por amor, Agora eu vou curtir a vida
(refro)
C
G
Chora, me liga, implora, Meu beijo de novo
Am
F
Me pede socorro, Quem sabe eu vou te salvar
C
G
Chora, me liga, implora, Pelo meu amor
Am
F
G
C
Pede por favor, Quem sabe um dia eu volto a te procurar
Interldio: C G Am F - (repete a msica)
Final: C G Am F C

128
Aprenda Viola Caipira - Violeiro Cristiano Scuciatto - Material Desenvolvido para fins didticos

Bandeira Branca
Composio: Tio Carreiro - Pagode
D A7 D A7 D A7 D
1---------------------------------------------------------|
2-----------0-------0--------0-------0-------0------------|
3---------------------------------------7-8------8-7h8p7--|
4--0-2-4-7-----7-7------7-7-----7-9-----------------------|
5---------------------------------------------------------|
1------------------|---------------------------------------|
2--------0--------0|----------------0-------------0--------|
3------------------|-------------3-------------1-----------|
4--9-7------7-7----|--0--4-0-4--------0-2-0-2---------0-0--|
5------------------|---------------------------------------|

D
A7
D
Vou contar o que eu nunca vi pro serto e pra cidade
Nunca vi guerra sem tiro e nem cadeia sem grade
A7
Nunca vi um prisioneiro que no queira liberdade
D
A7
D
Nunca vi me amorosa do filho no ter saudade
D
A7
D
Nunca vi homem pequeno que ele no fosse papudo
Eu nunca vi um doutor fazer falar quem mudo
A7
Nunca vi um boiadeiro carregar dinheiro mido
D
A7
D
(solo)
Nunca vi homem direito vestir cra de veludo
D
A7
D
Eu nunca vi um carioca que no fosse bom sambista
Nunca vi um pernambucano que no fosse bom passista
A7
Nunca vi um paraibano que no fosse repentista
D
A7
D
Nunca vi um deputado apanhar de jornalista
129
Aprenda Viola Caipira - Violeiro Cristiano Scuciatto - Material Desenvolvido para fins didticos

D
A7
D
Eu nunca vi um paulista da vida se maldizendo
Nunca vi um paranaense que no esteja enriquecendo
A7
Eu nunca vi um baiano no faco sair perdendo
D
A7
D
(solo)
Eu nunca vi um mineiro da luta sair correndo
D
A7
D
Nunca vi um catarinense depois de velho aprendendo
Nunca vi um mato-grossense de medo andar tremendo
A7
Eu nunca vi um gacho pra laar precisar treino
D
A7
D
Eu nunca vi um goiano por paixo beber veneno
D
A7
D
Nunca vi um fazendeiro andar em cavalo que manca
Pra fechar boca de sogra no vi chave no vi tranca
A7
Pra terminar meu pagode vou falar botando banca
D
A7
D
Quero ver meus inimigos levantar bandeira branca
RITMO PAGODE CAIPIRA

Prof. Cristiano Scuciatto (19) 9105-9159


http://aprendaviolacaipira.blogspot.com.br/
cristianomusicas31@gmail.com

130
Aprenda Viola Caipira - Violeiro Cristiano Scuciatto - Material Desenvolvido para fins didticos

Pagode Na Praa Tio Carreiro e Pardinho


Compositor: Jorge Paulo / Moacyr Dos Santos
Tom: D - (intro) ( D A7 D A7 D ) (2x)
( A7 D )
D
A7
Fazer moda meu vcio viola minha cachaa
D
No batido do pagode meus dedos no embaraa
A7
Quando eu passo a mo na viola fao levantar fumaa
D
A7
D
O pagode no momento ta sendo dono da taa
Porque o povo esta gostando eu tambm t caprichando
A7
D A7 D
De vez enquando soltando um pagode bom na praa
A7
A sina de um cantador somente Deus quem traa
D
Pra ser um bom violeiro no pode fazer ruaa
A7
Precisa deixar o nome no lugar aonde passa
D
A7
D
S cantando modas boaspra agradar a grande massa
Da sorte nis no reclama eu zelo por nossa fama
A7
D A7 D
Aonde o povo me chamatem pagode bom na praa
A7
Quem quizer cantar pagode mostre sangue e mostre raa
D
Se no for pra ser bem feito s vocs que no faa
A7
O batido do pagode eu ensino at de graa
D
A7
D
Quem canta pagode certo pode crer que no fracassa
E o pagode brasileiro d nome pra violeiro
131
Aprenda Viola Caipira - Violeiro Cristiano Scuciatto - Material Desenvolvido para fins didticos

A7
D A7 D
Quem quiser ganhar dinheiro pe pagode bom na praa
A7
preciso ter amor na profisso que abraa
D
Ter um capricho comigo levo ele por pirraa
A7
Moda roubada eu no gravo nis no pega e nem no laa
D
Vou lutar com meus colegas luta limpa sem trapaa
Minha viola nunca falha ganhou flores e medalhas
A7
D A7 D
e o trofu chapu de palha com um pagode bom na praa

RITMO PAGODE CAIPIRA

Prof. Cristiano Scuciatto


(19) 9105-9159
http://aprendaviolacaipira.blogspot.com.br/
cristianomusicas31@gmail.com

132
Aprenda Viola Caipira - Violeiro Cristiano Scuciatto - Material Desenvolvido para fins didticos

Pagode Na Praa
1|-0------------4-7p4-----------4-7p4-----------2-5p2----|
2|-0-----4h5------------4h5---------------2h4------------|
3|-0-----------------------------------------------------|
4|-0-----------------------------------------------------|
5|-0--0-------0-------0------0---------0------0--------0-|

1|--------2-5p2-----------4-7p4---------4-7p4------7--------|
2|-2h4-------------4h5------------4h5-----------------------|
3|-------------------------------------------------7--------|
4|----------------------------------------------------------|
5|------0--------0------0-------0------0--------0-------0---|

1|-75-----5--4-----2---------12----4-7-4-----------2-4-2----|
2|--------------------2-9-------5-----------2-4-------------|
3|-75-----5--3-----1-1-8-----------------------------------|
4|----------------------------------------------------------|
5|-----0--------0----------0------0--------0-----0--------0-|

1|--------2-4-2--------4-7-4----------4-7-4----7---------|
2|-2-4----------4-5------------4-5-----------------------|
3|---------------------------------------------7---------|
4|-------------------------------------------------------|
5|------0------------0-------0-----0---------0----0------|

1|-5----4-4----2----0--0-0-----------------------------|
2|-----------------------0-----------------------------|
3|-5----3-3----1-------0-0-----------------------------|
4|-----------------------0-----------------------------|
5|----0------0----0------0-----------------------------|
Prof. Cristiano Scuciatto
(19) 9105-9159
http://aprendaviolacaipira.blogspot.com.br/
cristianomusicas31@gmail.com

133
Aprenda Viola Caipira - Violeiro Cristiano Scuciatto - Material Desenvolvido para fins didticos

134
Aprenda Viola Caipira - Violeiro Cristiano Scuciatto - Material Desenvolvido para fins didticos

Msica: Brincando com a viola (instrumental)


Bambico- Ritmo: Pagode
1|---------------------------------------------|-------------------------------------2|-----------------------------------2-2-2-1-0-|-------------------------------------3|----------------0---0-1-0-1-3-0--------------|--------------------0---0-1-1---1-1-3-1-0|
4|----0---0-2-0-2---2-------------0------------|---------0--0-2-0-2---2-------------5|0-4---4--------------------------------------|0-2-4-2-4--4------------------2-----4
4
2
2
2
1
1 3
2 2 2 1
2 4 2 4 4 2
2
2 1 1 2 1 1 3 1

A
1|-------------------------------------------------|
2|--------------------------------------2-2-0------|
3|------------------0---0-1-0-1-3-0-----------1-1--|
4|-----0---0-2-0-2----2-------------0--------------|
5|-0-4---4-----------------------------------------|
44 2 2 2 1 1 3 2 2 1 1
E B7 E A E B7 E
1|------------------------------------------|-----------------------------------------|
2|2-----------------------------------------|-2---------------------------------------|
3|--1-0---0-1-3-0-------0-1----------0-1-3--|---1-0---0-1-3-0--------0-1--------------|
4|------2---------2-0-2-----2-0---0-2-------|-------2---------2-0-2------2-0---0-2-0--|
5|------------------------------4-----------|--------------------------------4--------|
2 12 1 3 2 2 1 2 4 2 1 3 2 1 2 1 3 2 2 1 2 4 2
B7 E
1|-7-7-7-4-4-4---------------------0-2-5-2-|-5-5-5-2-2-2----------------------0-2-4-4-|
2|-------------5-5-5-5-4-2-0-0-2-4---------|--------------4-4-4-4-3-2-0-0-2-4---------|
3|-----------------------------------------|------------------------------------------|
4|-----------------------------------------|------------------------------------------|
5|-----------------------------------------|------------------------------------------|
4 4 4 1 1 1 2 2 2 2 1 1 1 3 1 4 1 4 4 4 1 1 1 3 3 3 3 2 1 1 3 1 3 3
E7 A E B7 E
1|-7-7-7-4-4-4---7-4-----7-4-----|-9--------------7-----------------------------7-----|
2|-------------5-----5-----------|---10-9-7-9-10----9-7---7-9-10-7-------7-9/10-------|
3|---------------------6-----6-5-|----------------------8----------8-7-8--------------|
4|-------------------------------|----------------------------------------------------|
5|-------------------------------|----------------------------------------------------|
4 4 4 1 1 1 2 4 1 2 3 4 1 3 2 3 4 3 1 3 4 1 3 1 2 1 3 4 1 2 1 2 1 3 1
A E B7 E
1|-9-------------7-------------------------------|
2|---10-9-7-9-10---9-7---7-9-10-7-------7--------|
3|---------------------8----------8-7-8---8------|
4|-----------------------------------------------|
5|-----------------------------------------------|
34 3 1 3 4 1 3 1 2 1 3 4 1 2 1 2 1 2
B7 E
1|----11------7-----4-------------------|----9------5-----2-2-2-2-0----------------|
2|-12----12-9---9-5---5---5---4---------|-10---10-7---7-4---4-4-4-2-4-4-4-5-4-2-0--|
3|----------------------5---5-3-3-5-6-7-|---------------------------3-3-3-5-3-1-0--|
4|------------------------------4-5-6-7-|------------------------------------------|
5|--------------------------------------|------------------------------------------|
Aplicao de escalas duetadas1 e 2 par 2 e 3 par 3 e 4 par

135
Aprenda Viola Caipira - Violeiro Cristiano Scuciatto - Material Desenvolvido para fins didticos

E7 A E B7 E
1|---11------7-----4---4-3-2-0------4-5--------- 11-12-------------6-7---------------72|12----12-9---9-5---5-5-4-3-2-3-2------4-5------------11-12-----------6-7--------10-3|-----------------------------3-1----------4-5--------------11-12---------7-8--9----4|----------------------------------------------------------------------------------5|----------------------------------------------------------------------------------1 2 1 2 1 21 2 1 2 1 2 1 2 1 2 1 2 2 3 1
Duetadas 1 e 2 par 2 e 3 par
A E B7 E Harm.
1|-4-5----------11-12-------------6-7------------------------<12>------------------2|-----4-5------------11-12-----------6-7---------5/9-5/9---<12>-------------------|
3|---------4-5--------------11-12---------7-8-----5/8-5/8---<12>-------------------|
4|-----------------------------------------------------------<12>-------------------|
5|-----------------------------------------------------------<12>-------------------|
1 2 1 2 1 21 2 1 2 1 2 1 2 1 2 2 3

136
Aprenda Viola Caipira - Violeiro Cristiano Scuciatto - Material Desenvolvido para fins didticos

Baiano No Cco Tio Carreiro e Pardinho


Introduo: A7 \A7\ A7\ A7 \A7\ A7\ A7 \ A7 \A7\ A7\ A7\B7\ E \A7
Tom: A7 Mixoldio (Escala Modal)
A7
Quando eu vim l da Bahia... Rumo so Paulo eu meti os peito...
Baiano veio de pau-de-arara... Ser pobre no defeito...
Eu vim pra ganhar dinheiro... Servio eu no enjeito...
E
A7
S que eu t com uma vontade... De comer cco que no tem jeito...
SOLO
A7
No comeo foi difcil... Passei por caminho estreito...
Amizade com malandro... coisa que eu no aceito...
Comecei a trabalhar... Hoje eu vivo satisfeito...
E
A7
S que eu t com uma vontade... De comer cco que no tem jeito...
SOLO
A7
Tudo que Deus Fez por mim... Eu acho que foi bem feito...
Tudo o que eu pude fazer... Procurei fazer direito...
Em so Paulo eu sou tratado... Com carinho e com respeito...
E
A7
S que eu t com uma vontade... De comer cco que no tem jeito...
SOLO
A7
Quero rever a Bahia... Porque tenho esse direito...
Nosso senhor do Bonfim... Trago dentro do meu peito...
Eu sonho com a Bahia... Mas so Paulo meu leito...
E
A7
S que eu t com uma vontade... De comer cco que no tem jeito..

137
Aprenda Viola Caipira - Violeiro Cristiano Scuciatto - Material Desenvolvido para fins didticos

1|-2---------------5-2-2---------------------2|-4----------0-4--------4-------------------3|-3-------3----------------3-1-0------------4|-2-----2------------------------2----------5|-4---4-----------------------------0--------

1|----------------5-2-2----------------------2|-----------0-4--------4--------------------3|--------3----------------3-1-0-------------4|------2------------------------2-----------5|----4-------------------------------0--------

1|------------------------------------------2|-----0-------0------0-------0-------0-----------3|--------------------------------------4|-----------2-----4-------2-----5----------5|---0-----4-----4-------4-------7--0----4----------------------

1|-------------------------------------------------------2|-----0------0-------0--------0-------0-------0----------0
3|---------------------------------------------------------4|--2-------4------2-----5-----------5------7--------5----5|--------4------4-------7--0-----7-------7-------7----------

1|-------------------------------------------------------2|-------------------------0-------0----0-------0---------3|---------------------------------------------------------4|-4----4--6----2-7---7-2-------5------------5-----------5|-5--5----7--0---------------4------4-----4-------4--------

138
Aprenda Viola Caipira - Violeiro Cristiano Scuciatto - Material Desenvolvido para fins didticos

Tudo Serve Tio Carreiro


Tom: D - Tio Carreiro e Moachir dos Santos
INTRO: ( A7 D A7 D ) 2X ( A7 D ) 2X
RITMO: PAGODE DE VIOLA / CIP PRETO
D
A7
1.O PAU DO PINHEIRO SERVE PR FAZER VIOLA DE PINHO
D
O BRAO DA VIOLA SERVE PR MIM PONTI DIREITINHO
G
(G D7 G)
MUI FALADEIRA SERVE PR FAL MAL DOS VIZINHO
A7
D
A7
D
AS GUA QUE CORRE, CORRE SERVE PR MOVER MOINHO
A7
D
( Introd.)
CARRO VIO NA ESTRADA SERVE PR ENTUPI O CAMINHO.
-------------------------------------------------------------------------------------------------------------------------------------------------

D
A7
2.SAPATO APERTADO SERVE DI O CALO QUANDO EU PISO
D
NEGCIO QUANDO MAR FEITO S SERVE PR DAR PREJUZO
G
(G D7 G)
O DINHEIRO TAMBM SERVE POIS DELE QUE EU PRECISO
A7
D
A7
D
AS MUI BONITA SERVE PR GENTE PERDE O JUZO
A7
D A7 D (Introd)
OS SEUS LBIOS TAMBM SERVE PR ME D BEIJO E SORRISO.
-------------------------------------------------------------------------------------------------------------------------------------------------

D
A7
3.OS TEUS BEIJO TAMBM SERVE PR ME DAR INSPIRAO
D
A SUA BELEZA SERVE PR AUMENTA MINHA PAIXO
G
(G D7 G)
SEUS CARINHO TAMBM SERVE PR DOBR MINHA ILUSO

139
Aprenda Viola Caipira - Violeiro Cristiano Scuciatto - Material Desenvolvido para fins didticos

A7
D
A7
D
SEU ORUGULHO TAMBM SERVE PR FAZ INGRATIDO
A7
D A7 D (Introd)
SEU DESPREZO TAMBM SERVE PR FERI MEU CORAO
-------------------------------------------------------------------------------------------------------------------------------------------------

D
A7
4.MOCINHAS DE POUCA IDADE S SERVE PR NAMOR
D
A SOGRA ENCRENQUEIRA SERVE FAIZ CASAL SEPAR
G
(G D7 G)
AS MUI BAIXINHA SERVE J NASCERAM PR TEIM
A7
D
A7
D
OS HOME BAIXINHO SERVE PR FAZ OS GRANDE BRIG
A7
D A7 D
NA CASA QUE MUI MANDA O HOME SERVE PR APANH.

RITMO PAGODE CAIPIRA

140
Aprenda Viola Caipira - Violeiro Cristiano Scuciatto - Material Desenvolvido para fins didticos

Faca Que No Corta Tio Carreiro e


Pardinho
Tom: D
G
A7
D
Viola que no presta - Faca que no corta
A7
D
Se eu perder, pouco me importa
D
O cabo da minha enxada era um cabo bacana
A7
(A7GA7)
No era de guatambu, era de cana caiana
G
A7
D
Um dia l na roa, me deu sede toda hora
A7
D A7 D
Chupei o cabo da enxada e joguei a enxada fora
G
A7
D
Enxada que no presta - Faca que no corta
A7
D
Se eu perder, pouco me importa
D
2.Corri atrs de uma ona, Preparando pra atirar
A7
(A7GA7)
Do estado de So Paulo atravessou pro Paran
G
A7
D
A caa que eu atiro eu juro que no escapa
A7
D
A7 D
A cartucheira falhou eu peguei a ona no tapa
G
A7
D
Cartucheira que no presta - Faca que no corta
A7
D
Se eu perder, pouco me importa

141
Aprenda Viola Caipira - Violeiro Cristiano Scuciatto - Material Desenvolvido para fins didticos

D
3.Peguei o meu dinheiro emprestei prum camarada
A7
(A7GA7)
O sujeitinho sumiu, nem dinheiro e, nem mais nada
G
A7
D
Dinheiro emprestado um grande perigo
A7
D A7 D
A gente perde o dinheiro e tambm perde o amigo
G
A7
D
Amigo que no presta - Faca que no corta
A7
D
Se eu perder, pouco me importa
D
4.A fazenda do meu sogro faz divisa com a minha,
A7
Presente de casamento, ele me deu, pois eu no tinha.
G
A7
D
Com esse casamento fiquei rico de repente.
A7
D A7 D
Casei com sua fazenda trouxe a moa de presente.

(A7GA7)

G
A7
D
Casamento que no presta - Faca que no corta
A7
D
Se eu perder, pouco me importa
RITMO PAGODE CAIPIRA

142
Aprenda Viola Caipira - Violeiro Cristiano Scuciatto - Material Desenvolvido para fins didticos

Rei Sem Cora Tio Carreiro e Pardinho


Compositor: Tio Carreiro / Sebastio Victor
Tom: D - (intro) D A7 D A7 D A7 D
D
Nos lugar que tem violeiro e bons catireiro eu me sinto bem
A7
Gosto do cateret canto com prazer cururu tambm
Gosto da moda Campeira xote e rancheira como ningum
D
A7
D A7 D
Pra completar a coleo veja o batido que o pagode tem
( D A7 D A7 D A7 D )
D
2.Vamos mostrar para o povo esse estilo novo especializado
A7
Cantar com prazer nos pode porque o pagode j est afamado
bonito a gente ver dois pinhos gemer bem arrepicado
D
A7
D A7 D
Misturado no dueto do nosso peito bem afinado
( D A7 D A7 D A7 D )
D
3.No se aprende nas escolas o tocar da viola e o desembarao
A7
Veja s quanta beleza por natureza o cantar dos passo
Voc diz que cantador teve professor, mas tu um fracasso
D
A7
D A7 D
J tenho visto peo com fama de Bo mas ser ruim no lao
( D A7 D A7 D A7 D )
D
4.Quem canta seu mal espanta tristeza vai alegria vem
A7
No seja assim to gafola pegue na viola e cante tambm
143
Aprenda Viola Caipira - Violeiro Cristiano Scuciatto - Material Desenvolvido para fins didticos

Violeiro meia pataca da sua marca tem mais de cem


D
A7
D A7 D
Amigo cante direito e note os defeitos que voc tem
( D A7 D A7 D A7 D )
D
5.No nosso Brasil glorioso tem o famoso Rei do Caf
A7
O afamado Rei do Gado nem preciso dizer quem
Ns somos Rei do Pagode enquanto na bola o Rei Pel
D
A7
D A7 D
Voc canta e no entoa Rei sem Coroa afirme seu p

RITMO PAGODE CAIPIRA

144
Aprenda Viola Caipira - Violeiro Cristiano Scuciatto - Material Desenvolvido para fins didticos

Rancho dos Ips Tio Carreiro e Pardinho


Introduo:
A7
D
L no rancho dos ips um dia fui convidado
A7
D
A7
Pra passar um fim de semana no interior do meu estado
Quatro dias quatro noites que at hoje so lembrados
G
A7
D
Eu parecia um rei, do jeito que fui tratado
A7
D
A7
D
Eu passei horas contente, s havia ali presente gente boa do meu lado
Introduo:
A7
D
2.L no rancho dos ips onde fiquei hospedado
A7
D
A7
o recanto de beleza um jardim encantado
Os ips quando florecem, tudo ali fica dourado
G
A7
D
Parece um cu na terra que por Deus foi preparado
A7
D
A7
Neste cu o que mais brilha so garrotes e novilhas pelos campos
D
esparramados
Introduo:
A7
D
3.A bonita Echapor fica logo ali pregada
A7
D
A7
a terra dos Gonalves que caiu nos seus agrados
O Joozinho e o Zezinho dois negociantes de gado
G
A7
D
Seu Luiz o pai dos moos um senhor considerado
A7
D
A7
A famlia um talento tem milhes em movimentos fora os capitais
D
parado
145
Aprenda Viola Caipira - Violeiro Cristiano Scuciatto - Material Desenvolvido para fins didticos

Introduo:
A7
D
4.Para o rancho dos ips um dia quero voltar
A7
D
A7
Rever muita gente boa a saudade eu vou matar
Minha esperana verde, eu no deixo madurar
G
A7
D
Mais tarde ou mais cedo, de novo vou visitar
A7
D
A7
D
Amigo Geraldo Prado vai meu abrao apertado bem longe de ir por l

RITMO PAGODE CAIPIRA

146
Aprenda Viola Caipira - Violeiro Cristiano Scuciatto - Material Desenvolvido para fins didticos

Sete Flechas Tio Carreiro e Pardinho


Compositor: Tio Carreiro / Z Mineiro / Lorival Dos Santos
Tom: D - Intro: D7 G A7 D A7 D A7 D
D7
G
D7
G
1.Quem bom j nasce feito, quem ruim s atrapalha.
A7
D
Eu bato logo no burro e no bato na cangalha
Entrei numa guerra dura, fiz virar fogo de palha.
A7
A7 G A7
Fiz virar carto de prata, punhal, espada e navalha.
D
A7
D
(A7 D Introd )
Bala bateu no meu peito, derreteu virou medalha.
( D7 G A7 D A7 D A7 D A7 D )
D7
G
D7
G
2.Para dar fim na minha vida prepararam uma cilada
A7
D
Foi a noite num banquete com champanha envenenada
Deus pai no padrasto, ganhei mais uma parada.
A7
A7 G A7
A taa que era minha foi parar em mo trocada
D
A7
D
(A7 D Introd )
Quem me preparou veneno foi morrer de madrugada
( D7 G A7 D A7 D A7 D A7 D )
D7
G
D7
G
3.Eu recebi um presente numa caixa de sapato
A7
D
Uma cobra venenosa que pegaram l no mato
dessas cobras que morde, quando no aleija mata
A7
A7 G A7
O meu nome sete flechas, o n que eu d ningum desata
D
A7
D
(A7 D Introd )
Bati os olhos na cobra, transformei numa gravata
( D7 G A7 D A7 D A7 D A7 D )
147
Aprenda Viola Caipira - Violeiro Cristiano Scuciatto - Material Desenvolvido para fins didticos

D7
G
D7
G
4.Coloquei a tal gravata que o falso amigo mandou
A7
D
Fui passar na casa dele, desse jeito ele falou.
Meu Deus que gravata linda, a gravata ele pegou.
A7
A7 G A7
A gravata deu um bote que na mo dele picou
D
A7
D
(A7 D Introd )
A gravata lhe mordeu, foi a cobra que ele mandou.

RITMO PAGODE CAIPIRA

148
Aprenda Viola Caipira - Violeiro Cristiano Scuciatto - Material Desenvolvido para fins didticos

Tudo Certo Tio Carreiro e Pardinho


Compositor: Tio Carreiro / Moacir Dos Santos
Tom: D - Intro: D A7 D A7 D A7 D A7 D A7 D
D
A7
D
1.Jacar carrega serra, mas nunca foi carpinteiro.
A7
E o bode tambm tem barba no precisa ir ao barbeiro.
G
D
A
Galo tambm tem espora, mas nunca foi cavaleiro.
A7
D
A7
D
Sabi canta bonito e no pode ser violeiro.
A7
D
Vigrio faz casamento, mas vive... tudo solteiro.
( D A7 D A7 D A7 D A7 D A7 D )
A7
D
2.Lua nova bonita no precisa usar pintura.
A7
Tambm a boca da noite nunca teve dentadura.
G
D
G
Eu sei que o brao do mar no pode sofrer fratura.
A7
D
A7
D
Navio tambm tem casco e no precisa ferradura.
A7
D
O engenho faz guarapa, mas no come... a rapadura.
( D A7 D A7 D A7 D A7 D A7 D )
A7
D
3.Aprendi danar catira mas no sei danar twist.
A7
O meu carro tambm canta e o seu cantar triste.
G
D
G
Tem violeiro que no vai mas da viola no desiste.
A7
D
A7
D
Prego tambm tem cabea e nunca teve sinusite.
149
Aprenda Viola Caipira - Violeiro Cristiano Scuciatto - Material Desenvolvido para fins didticos

A7
D
Chaleira tambm tem bico mas no pode... comer alpiste.
( D A7 D A7 D A7 D A7 D A7 D )
A7
D
4.Eu no sou muito esperto mas tambm no sou otrio.
A7
Minhas contas eu no pago junto pra fazer rosrio.
G
D
G
Relgio trabalha tanto e nunca recebeu salrio.
A7
D
A7
D
Joo-de-Barro fez a casa hoje ele proprietrio.
A7
D
Papagaio fala muito e no conhece... o dicionrio.
( D A7 D A7 D A7 D A7 D A7 D )
A7
D
5.Garrincha tem perna torta mas foi o mais aplaudido.
A7
Meu carro tem p redondo e faz o rastro comprido.
G
E
G
Serrote tambm tem dente e no come nada cozido.
A7
D
A7
D
O martelo tem orelha e no sofre dor de ouvido.
A7
D
As meninas dos meus olhos no precisam... usar vestido

RITMO PAGODE CAIPIRA

150
Aprenda Viola Caipira - Violeiro Cristiano Scuciatto - Material Desenvolvido para fins didticos

A7 D

Empreitada perigosa Tio Carreiro e Pardinho


Tom: D Introduo: A7, D7, G

Afinao em (D)

D
1.J derrubamos o mato, terminou a derrubada
Agora preste ateno, meus "amigo e camarada
E
No posso levar "voceis" pra minha nova empreitada
A7
D (Introd)
Vou pagar tudo que devo e sair de madrugada
Introduo
D
2.A minha nova empreitada no tem mato e nem espinho
Ferramentas no preciso guarde tudo num cantinho
E
Preciso de um cavalo, bem ligeiro e bem mansinho
A7
D (Introd)
Preciso de muitas balas e um "colte" cavalinho
Introduo:
D
3.Eu nada tenho a perder, pra minha vida eu no ligo
Mesmo assim eu peo a Deus que me livre do inimigo
E
A empreitada perigosa sei que vou correr perigo
A7
D (Introd)
por isso que eu no quero nem um de "voceis" comigo
Introduo:
D
4.Eu vou roubar uma moa de um ninho de serpente
Ela quer casar comigo a famlia no consente
E
J me mandaram um recado "to" armado at os dentes
A7
D (Introd)
Vai chover bala no mundo se "nis" topar frente a frente
Introduo:
151
Aprenda Viola Caipira - Violeiro Cristiano Scuciatto - Material Desenvolvido para fins didticos

D
5.Adeus, adeus preto velho, Z Maria e Serafim
Adeus, adeus Paraba, Mineirinho e "Seu" Joaquim
E
Se eu no voltar amanh, pode at rezar pra mim
A7
D (Introd)
Mas se tudo der certinho a menina tem que vim...

RITMO PAGODE CAIPIRA

152
Aprenda Viola Caipira - Violeiro Cristiano Scuciatto - Material Desenvolvido para fins didticos

PAGODE NORDESTINO
Chora Viola Tio Carreiro e Pardinho
Lourival dos Santos e Tio Carreiro - lbum Pagodes 1977

Tom: D7 Mixoldio (Escala Modal)


D7
Eu no caio do cavalo nem do burro e nem do galho
Ganho dinheiro cantando a viola meu trabalho
G
A7
No lugar onde tem seca eu de sede l no caio
D
A7
D
Levanto de madrugada e bebo pingo de orvalho chora viola!
(Introduo)
D7 -----------------------------------------------------------------------------------No como gato por lebre no compro cip por lao
Eu no durmo de botina no dou beijo sem abrao
G
A7
Fiz um ponto l na mata caprichei e dei um n
D
A7
D
Meus amigos eu ajudo inimigo tenho d chora viola!
(Introduo)
D7------------------------------------------------------------------------------------A lua dona da noite e o sol dono do dia
Admiro as mulheres que gostam de cantoria
G
A7
Mato a ona e bebo o sangue furo a terra e tiro o ouro
D
A7
D
Quem sabe aguentar saudade no aguenta desaforo chora viola!
(Introduo)
D7------------------------------------------------------------------------------------Eu ando de p no cho piso por cima da brasa
Quem no gosta de viola que no ponha o p l em casa
G
A7
A viola est tinindo o cantador t de p
D
A7
D
Quem no gosta de viola, brasileiro bom no chora viola!
153
Aprenda Viola Caipira - Violeiro Cristiano Scuciatto - Material Desenvolvido para fins didticos

Chora Viola Tio Carreiro e Pardinho


Lourival dos Santos e Tio Carreiro - lbum Pagodes 1977

1|-7/10-10--9--7-0000-|--|-------------0000------------|
2|-9/12-12--10-9-0000-|--|-------------0000------------|
3|---------------0000-|2X|-1/3-3--1--0-0000-1/3--3-1--0|2X
4|---------------0000-|--|-2/4-4--2--0-0000-2/4--4-2--0|
5|---------------0000-|--|-------------0000------------|
1|----------------|
2|----0-----------|
3|----------6-----|
4|-------4------4-|
5|-5--------------|
1|----------------------------------------------------------2|--0----------------0--------------0-----------------------3|-------------------------6----------------------------6---4|-------2p0------0-----4----4-----------2p0------0--4-----45|0---4------2h4-----------------0-----4-----2h4------------1|-----------------------0--0--0-----0--0--0--2|-----------------------5--5--5-----5--5--5--3|-----------------------6--6--6-----6--6--6--4|---------2---4---2-----4--4--4-----4--4--4--5|-----0---4---2---4-----5--5--5-----5--5--5---

Ritmo de Pagode Caipira Nordestino

154
Aprenda Viola Caipira - Violeiro Cristiano Scuciatto - Material Desenvolvido para fins didticos

ASA BRANCA LUIZ GONZAGA


Tom: D7 Mixoldio (Escala Modal)
D
G
D
A7
D
Quando olhei a terra ardendo - Qual fogueira de So Joo
D D7
G
A7
D
(Eu perguntei a Deus do cu, ai - Por qu tamanha judiao) (2x)
D
G
D
A7
D
Que braseiro, que fornalha - Nem um p de plan-ta-o
D
D7
G
A7
D
(Por farta d'gua
perdi meu gado - Morreu de sede, meu alazo) (2x)
D
D7 G
D A7 D
At mesmo a asa branca - Bateu asas do serto
D
D7
G
A7
D
(Ento eu disse, adeus Rosinha - Guarda contigo meu corao) (2x)
D
D7
G
D A7 D
Hoje longe muitas lguas - Nessa triste so-li-do
D D7
G
A7
D
(Espero a chuva cair de novo - Pra mim voltar pro meu serto) (2x)
D
D7
G
D
A7
D
Quando o verde dos teus olhos - Se espalhar na plan-ta-o
D D7
G
(Eu te asseguro, no chores no, viu?
A7
D
Que eu voltarei, viu, meu corao)2X

155
Aprenda Viola Caipira - Violeiro Cristiano Scuciatto - Material Desenvolvido para fins didticos

Ritmo de Pagode Caipira Nordestino

1|--10------9-------7-----5-----4-----2---0----0--0---2|------12-----10------9-----7-----5--------2---------3|----------------------------------------------------4|----------------------------------------------------5|-----------------------------------------------------

156
Aprenda Viola Caipira - Violeiro Cristiano Scuciatto - Material Desenvolvido para fins didticos

RANCHEIRA
Rancheira um estilo musical brasileiro, originada no meio rural. Apresenta variaes regionais,
sendo as mais importantes a rancheira gacha, com marca da influncia do ritmo do norte
argentino, e a rancheira sertaneja, originada no Sudeste do Brasil, mais especificamente no
interior paulista, com influncia de ritmos bolivianos e paraguaios.
A rancheira tambm o nome da forma de danar (bailar) que adequada msica.
Ritmo Ternrio (3/4)
Canes populares em rancheira no Brasil
Duas Camisas - Milionrio e Jos Rico
D Amor Para Quem Te Ama - Milionrio e Jos Rico
De Longe Tambm Se Ama - Milionrio e Jos Rico
Estrada da Vida - Milionrio e Jos Rico
Herana - Milionrio e Jos Rico
V Embora - Zez Di Camargo e Luciano
Amante Amada - Chitozinho e Xoror
Somos Apaixonados - Chitozinho e Xoror

Estrada da Vida / Milionrio e Jos Rico


Tom: C -Intro: G F C C Dm G7 C C G F C C7 F G7 C G7 C
C
G7
C
Nesta longa estrada da vida
G
Vou correndo e no posso parar
F
C
Na esperana de ser campeo
G7
C C7
Alcanando o primeiro lugar
F
C
Na esperana de ser campeo
G7
C C7
Alcanando o primeiro lugar
F
Mas o tempo cercou minha estrada
G7
C
E o cansao me dominou
G
Minhas vistas se escureceram
157
Aprenda Viola Caipira - Violeiro Cristiano Scuciatto - Material Desenvolvido para fins didticos

F
G7
C
E o final da corrida chegou
(Intro)
C
G7
C
Este um exemplo da vida
G
Para quem no quer compreender
F
C
Ns devemos ser o que somos
G7
C C7
Ter aquilo que bem merecer
F
C
Ns devemos ser o que somos
G7
C C7
Ter aquilo que bem merecer
F
Mas o tempo cercou minha estrada
G7
C
E o cansao me dominou
G
Minhas vistas se escureceram
F
G7
C
E o final desta vida chegou.

158
Aprenda Viola Caipira - Violeiro Cristiano Scuciatto - Material Desenvolvido para fins didticos

MODA DE VIOLA
Msica: O Rei do Gado
Teddy Vieira Tom A Ritmo Moda de Viola
1|-0-0-0-0-0-0-0-0-0-0-0-0-0-0-0-2-2-2-2-7-7-7-7-2-2-2-7-7-7-2-2-7-7-72|-0-0-0-0-0-0-0-0-0-0-0-0-0-0-0-2-2-2-2-7-7-7-7-2-2-2-7-7-7-2-2-7-7-73|-0-0-0-0-0-3-0-0-1-0-0-3-0-0-0-2-2-2-2-7-7-7-7-2-2-2-7-7-7-2-2-7-7-74|-0-0-0-0-0-2-0-0-2-0-0-2-0-0-0-2-2-2-2-7-7-7-7-2-2-2-7-7-7-2-2-7-7-75|-0-0-0-0-0-4-0-0-0-0-0-4-0-0-0-2-2-2-2-7-7-7-7-2-2-2-7-7-7-2-2-7-7-7---------------------------------

Num Bar
1
2
3
4
5

1
2
3
4
5

2
2

4
3

De

Ri

bei

ro

pre

To
eu

vi

com meus o

4
3

4
3

4
3

2
2

5
5

5
5

4
3

2
2

quan do
o

cham pa

3
4

2
2

2
2

2
0

3
4

nha cor

ria

ro

do

2
0

2
4

0
2

2
4

2
4

2
0

2
2

lhos es

2
2

2
2

ta

3
4

pas

sa

Gem

2
2

4
3

2
2

da

via

Gem

2
2

4
3

2
2

/
nas
1
2
3
4
5

6
7

nis
1
2
3
4
5

2
2

Al

6
7

Tas

6
7

Ro

4
5

das

4
5

da

4
5

so

2
4

cie

2
4

da

0
2

de

0
2

To

Che Gou um

pe

tra

zen

do

4
3

4
3

2
2

5
5

5
5

4
3

2
2

4
3

4
3

2
2
2
2
2

2
2
2
2
2

2
2
2
2
2

na

tes

ta

3
4

2
2

2
2

2
2

3
4

159
Aprenda Viola Caipira - Violeiro Cristiano Scuciatto - Material Desenvolvido para fins didticos

1
2
3
4
5

1
2
3
4
5

pro

Gar

on ele

pe

diu

uma pin

Ga

3
4

2
2

2
0

2
0

2
0

2
4

0
2

2
4

que Era

Pra

re

ba

ter

fri

6
7

6
7

4
5

4
5

2
4

0
2

2
0

2
0

6
7

2
4

Gem 7
7
7
7
2
7
0
7

7
7
7
7
7
7

7
7
7
7
7
7

2
2
2
2
2
2

2
2
2
2
2
2

2
2
2
2
2
2

7
7
7
7
7
7

7
7
7
7
7
7

Rei do Gado
Tio Carreiro e Pardinho
1.Num bar de Ribeiro Preto, Eu vi com meus olhos esta passagem
Quando champanha corria a rodo, No alto meio da gr-finagem
Nisto chegou um peo, Trazendo na testa o p da viagem
Pro garom ele pediu uma pinga, Que era pra rebater a friagem
2.Levantou um almofadinha e falou pro dono, "Eu tenho m f
Quando um caboclo que no se enxerga, Num lugar deste vem pr os ps.
Senhor que o proprietrio, Deve barrar a entrada de qualquer.
Principalmente, nesta ocasio, Que est presente o rei do caf"
3.Foi uma salva de palmas, Gritaram viva pro fazendeiro
"Quem tem milhes de ps de cafs, Por este rico cho brasileiro?
Sua safra uma potncia, Em nosso mercado e no estrangeiro
Portanto vejam que este ambiente, No pra qualquer tipo rampeiro"
4.Com um modo bem corts, Responde o peo pra rapaziada
"Essa riqueza no me assusta, Topo em aposta qualquer parada
Cada p desse caf, Eu amarro um boi da minha invernada
E pra encerrar o assunto eu garanto, Que ainda me sobra uma boiada"
5.Foi um silncio profundo, O peo deixou o povo mais pasmado
Pagando a pinga com mil cruzeiro, Disse ao garom pra guardar o trocado
"Quem quiser meu endereo, Que no se faa de arrogado
s chegar l em Andradina, E perguntar pelo rei do gado"

160
Aprenda Viola Caipira - Violeiro Cristiano Scuciatto - Material Desenvolvido para fins didticos

7
7
7
7
7
7

CANA VERDE TONICO E TINOCO


Compositor: Tonico / Tinoco - Tom: D
(intro 2x) ( D A7 D A7 D )
D
A7
D
A7
D
Abre a porta ou a janela - Venha ver quem que eu sou
A7
D
A7
D
Sou aquele desprezado - Que voc me desprezou

A7
D
A7
D
Eu j fiz um juramento - De nunca mais ter amor
A7
D
A7
D
Por viver penar chorando - Pra todo lugar que eu for
A7
D
A7
D
Quem canta seu mal espanta - Chorando ser pior
A7
D
A7
D
O amor que vai e volta - A volta sempre melhor
A7
D
A7
D
Chora viola e sanfona - Chora triste o violo
A7
D
A7
D
O que madeira chora - Que dir meu corao
A7
D
A7
D
Pra cantar caninha verde Primeiro canta o violeiro
A7
D
A7
D
Depois que o violeiro canta. Canta outros companheiros
A7
D
A7
D
Chora morena primeiro canta o violeiro
A7
D
A7
D
Depois que o violeiro canta. Canta outros companheiros

161
Aprenda Viola Caipira - Violeiro Cristiano Scuciatto - Material Desenvolvido para fins didticos

RASTA PE

CANA VERDE

162
Aprenda Viola Caipira - Violeiro Cristiano Scuciatto - Material Desenvolvido para fins didticos

MORENINHA LINDA TONICO E TINOCO


Tom G Introduo D7 G D7 G D7 G D7 G
G
D7
G
Meu corao t pisado - Com a flor que murcha e cai
C
D7
G
Pisado pelo desprezo - De um amor quando desfaz
C
D7
G
Deixando triste a lembrana - Adeus para nunca mais
D7
G
Moreninha linda do meu bem querer
D7
G
triste a saudade longe de voc
D7
G
Moreninha linda do meu bem querer
D7
G
triste a saudade longe de voc

D7 G D7 G

D7 G D7 G

G
D7
G
O amor nasce sozinho no preciso plantar
C
D7
G
A paixo nasce no peito, farsidade no olhar
C
D7
G
Voc nasceu para outro, eu nasci pra te amar

G
D7
Eu tenho meu canarinho
G
que canta, quando me v
C
D7
G
Eu canto por ter tristeza, canrio por padecer
C
D7
G
Da saudade da floresta, e eu saudade de voc

163
Aprenda Viola Caipira - Violeiro Cristiano Scuciatto - Material Desenvolvido para fins didticos

RASTA PE

CANA VERDE

164
Aprenda Viola Caipira - Violeiro Cristiano Scuciatto - Material Desenvolvido para fins didticos

Baile na Roa Tonico e Tinoco


Tom: G - Intro: G D7 G
G
D7
G
D7
Baile na Roa meu bem, se dana assim: pego na cintura dela
G
e ela garra"c em mim (BIS)
D7
G
E o sanfoneiro toca toca alegria,
D7
G
Vamo vamo minha gente, at clarear o dia
Refro
Introduo
Refro
D7
G
Dana dana com a morena, dana dana com a loirinha
D7
G
Comea o baile na tuia, e termina na cozinha.
Refro
Introduo
Refro
D7
G
Viva o baile na roa, viva a noite de S. Joo
D7
G
V o povo brasileiro conservando a tradio.

165
Aprenda Viola Caipira - Violeiro Cristiano Scuciatto - Material Desenvolvido para fins didticos

RASTA PE

CANA VERDE

166
Aprenda Viola Caipira - Violeiro Cristiano Scuciatto - Material Desenvolvido para fins didticos

BIOGRAFIA

167
Aprenda Viola Caipira - Violeiro Cristiano Scuciatto - Material Desenvolvido para fins didticos

BARRANCA DE RIO 01

168
Aprenda Viola Caipira - Violeiro Cristiano Scuciatto - Material Desenvolvido para fins didticos

BARRANCA DE RIO 02

169
Aprenda Viola Caipira - Violeiro Cristiano Scuciatto - Material Desenvolvido para fins didticos

BARRANCA DE RIO 03

170
Aprenda Viola Caipira - Violeiro Cristiano Scuciatto - Material Desenvolvido para fins didticos

COMO COMPRAR UMA VIOLA

171
Aprenda Viola Caipira - Violeiro Cristiano Scuciatto - Material Desenvolvido para fins didticos

CEBOLO EM R

172
Aprenda Viola Caipira - Violeiro Cristiano Scuciatto - Material Desenvolvido para fins didticos

BREVE HISTORIA DA VIOLA

173
Aprenda Viola Caipira - Violeiro Cristiano Scuciatto - Material Desenvolvido para fins didticos

Interesses relacionados