Você está na página 1de 4

01/01/2017 CifraClubOsParalamasdoSucessoAondeQuerQueEuV

AondeQuerQueEuV
OsParalamasdoSucesso
Composio:HerbertVianna

Tom: G

Primeira parte:

Em7 G
Olhos fechados
Em7 G
Pra te encontrar
Em7 G
No estou ao seu lado
Em7 G
Mas posso sonhar

Refro:

C9 Am7
E aonde quer que eu v
G D11/F# Em7
Levo voc no olhar
C9 Am7
Aonde quer que eu v
G D11/F# Em7
Aonde quer que eu v

Segunda parte:

Em7 G
No sei bem certo
Em7 G
Se s iluso
Em7 G
Se voc j perto
Em7 G
Se intuio

Refro:

C9 Am7
E aonde quer que eu v
G D11/F# Em7
Levo voc no olhar
C9 Am7
Aonde quer que eu v

https://www.cifraclub.com.br/osparalamasdosucesso/aondequerqueeuva/imprimir.html#columns=false 1/4
01/01/2017 CifraClubOsParalamasdoSucessoAondeQuerQueEuV

G D11/F# Em7
Aonde quer que eu v

Terceira Parte:

A5(9) F#m
Longe daqui
C#m
Longe de tudo
D A5(9)
Meus sonhos...... vo te buscar
F#m
Volta pra mim
C#m
Vem pro meu mundo
D A5(9)
Eu sempre...... vou te esperar
F#m C#m D C B7
Larar, Lararra

Segunda parte:

Em7 G
No sei bem certo
Em7 G
Se s iluso
Em7 G
Se voc j perto
Em7 G
Se intuio

Refro Final:

C9 Am7
E aonde quer que eu v
G D11/F# Em7
Levo voc no olhar
C9 Am7
Aonde quer que eu v
G D11/F# Em7
Aonde quer que eu v

C9 Am7 G D11/F# Em7


L, Larar, Larar
C9 Am7 G
L, Larar, Larar
D11/F# Em7
Aonde quer que eu v

https://www.cifraclub.com.br/osparalamasdosucesso/aondequerqueeuva/imprimir.html#columns=false 2/4
01/01/2017 CifraClubOsParalamasdoSucessoAondeQuerQueEuV

C9 Am7 G D11/F# Em7


L, Larar, Larar
C9 Am7 G D11/F# Em7
L, Larar, Larar Larr
C9 Am7 G
L, Larar, Larar
D11/F# Em7
Aonde quer que eu v

Riffs:

(Primeira Parte)

Riff 1:

E|------------------------------
B|------------------------------
G|------------------------------
D|------------------------------
A|-0h2--------------------------
E|------------------------------

Riff 2:

E|------------------------------
B|------------------------------
G|-2p0-------0------------------
D|-0---2-0h2--------------------
A|------------------------------
E|------------------------------

Riff 3:

E|------------------------------
B|------------------------------
G|------------------------------
D|------------------------------
A|-0-2-3------------------------
E|------------------------------

(Primeiro Refro)

Riff 3:

https://www.cifraclub.com.br/osparalamasdosucesso/aondequerqueeuva/imprimir.html#columns=false 3/4
01/01/2017 CifraClubOsParalamasdoSucessoAondeQuerQueEuV

E|------------------------------
B|------------------------------
G|------------------------------
D|------------------------------
A|-0-2-3------------------------
E|------------------------------

Riff 4:

E|------------------------------
B|------------------------------
G|------------------------------
D|-----0------------------------
A|-0h2--------------------------
E|-------0----------------------

(Segundo Refro)

E|------------------------------
B|------------------------------
G|------------------------------
D|------------------------------
A|-----0------------------------
E|-0h2--------------------------

A5(9) Am7 B7 C C#m C9


1 1 1 4
1 2 2 2 3 4 2 2
3 3 4

3 4

D D11/F# Em7 F#m G

1 2 1 2 1 2 1
3 3 4 3 2 3
3 4

https://www.cifraclub.com.br/osparalamasdosucesso/aondequerqueeuva/imprimir.html#columns=false 4/4